» » »

Thrice - Burn The Fleet Tabs

Artists:  A B C D E F G H I J K L M N O P Q R S T U V W X Y Z # 

Burn The Fleet Tabs

(ver. 1) Click to play this song!
Thrice
 Rating:
4/5 (4 votes)

 Burn The Fleet lessons Tabs too difficult? Try these video lessons and learn fast
 
                Thrice - Burn the Fleet Acoustic
Teppei's part
Tuning - D, G, C, F, A, D

(Place a Capo on 3rd fret)
(In this case, where it says 3rd fret, it means the 3rd fret, not 3 up from the capo)

D|-3--3------------3-33333333--3--3------------3-5-5-55-5555------------|
A|-3--3------------4-44444444--3--3-----10-11--4-4-4-44-4444------------|
F|-4--4--12-11-----5-55555555--4--4--12--------5-5-5-55-5555------------|
C|-5--5--10-10-12--5-55555555--5--5--10-10-10--5-5-5-55-5555------------|
G|-5--5--10-10-10--3-55555555--5--5--10-10-10--3-3-3-33-3333------------|
D|-3--3------------3-33333333--3--3------------3-3-3-33-3333------------|

D|-3--3------------3-33333333--3--3------------3-5-5-55-5555------------|
A|-3--3------------4-44444444--3--3-----10-11--4-4-4-44-4444------------|
F|-4--4--12-11-----5-55555555--4--4--12--------5-5-5-55-5555------------|
C|-5--5--10-10-12--5-55555555--5--5--10-10-10--5-5-5-55-5555------------|
G|-5--5--10-10-10--3-55555555--5--5--10-10-10--3-3-3-33-3333------------|
D|-3--3------------3-33333333--3--3------------3-3-3-33-3333------------|

D|----------14----------13-11-------------------------------------------|
A|-------12-12-------11-11-11---12--------------------------------------|
F|----12----12----12----12-12------12-----------------------------------|
C|-14----------13---------------------12/10-9---------------------------|
G|--------------------------------------------10------------------------|
D|-----------------------------------------------10---------------------|

D|----------14-14^ 12-----------------13-11-----------------------------|
A|-------12-12--------12-----------11-11-11---12------------------------|
F|----12----12-----------12-----12----12-12------12---------------------|
C|-14------------------------13---------------------12/10/12-9----------|
G|-------------------------------------------------------------10-------|
D|----------------------------------------------------------------------|

D|----------14-14^ 12-----------------13-11-----------------------------|
A|-------12-12--------12-----------11-11-11-----------------------------|
F|----12----12-----------12-----12----12-12-----------------------------|
C|-14------------------------13--------------13-------------------------|
G|----------------------------------------------------------------------|
D|----------------------------------------------------------------------|

D|----------14-14^ 12--------------15------15-15-15---------------------|
A|-------12-12--------12----------------16-16-16-16---------------------|
F|----12----12-----------12-----12---12----12-12-12---------------------|
C|-14------------------------13-----------------------------------------|
G|----------------------------------------------------------------------|
D|----------------------------------------------------------------------|

D|-3--3------------3-33333333--3--3------------3-5-5-55-5555------------|
A|-3--3------------4-44444444--3--3-----10-11--4-4-4-44-4444------------|
F|-4--4--12-11-----5-55555555--4--4--12--------5-5-5-55-5555------------|
C|-5--5--10-10-12--5-55555555--5--5--10-10-10--5-5-5-55-5555------------|
G|-5--5--10-10-10--3-55555555--5--5--10-10-10--3-3-3-33-3333------------|
D|-3--3------------3-33333333--3--3------------3-3-3-33-3333------------
|
D|-3--3------------3-33333333--3--3------------3-5-5-55-5555------------|
A|-3--3------------4-44444444--3--3-----10-11--4-4-4-44-4444------------|
F|-4--4--12-11-----5-55555555--4--4--12--------5-5-5-55-5555------------|
C|-5--5--10-10-12--5-55555555--5--5--10-10-10--5-5-5-55-5555------------|
G|-5--5--10-10-10--3-55555555--5--5--10-10-10--3-3-3-33-3333------------|
D|-3--3------------3-33333333--3--3------------3-3-3-33-3333------------|

D|----------14-14^ 12-----------------13-11-----------------------------|
A|-------12-12--------12-----------11-11-11---12------------------------|
F|----12----12-----------12-----12----12-12------12---------------------|
C|-14------------------------13---------------------12/10-9-------------|
G|----------------------------------------------------------10----------|
D|-------------------------------------------------------------10-------|

D|----------14-14^ 12-----------------13-11-----------------------------|
A|-------12-12--------12-----------11-11-11---12------------------------|
F|----12----12-----------12-----12----12-12------12---------------------|
C|-14------------------------13---------------------12/10-9-------------|
G|----------------------------------------------------------10----------|
D|-------------------------------------------------------------3--------|

D|----------14-14^ 12-----------------13-11-----------------------------|
A|-------12-12--------12-----------11-11-11-----------------------------|
F|----12----12-----------12-----12----12-12-----------------------------|
C|-14------------------------13--------------13-------------------------|
G|----------------------------------------------------------------------|
D|----------------------------------------------------------------------|

D|----------14-14^ 12--------------15------15-15-15---------------------|
A|-------12-12--------12----------------16-16-16-16---------------------|
F|----12----12-----------12-----12---12----12-12-12---------------------|
C|-14------------------------13-----------------------------------------|
G|----------------------------------------------------------------------|
D|----------------------------------------------------------------------|

D|-3--3------------3-33333333--3--3------------3-5-5-55-5555------------|
A|-3--3------------4-44444444--3--3-----10-11--4-4-4-44-4444------------|
F|-4--4--12-11-----5-55555555--4--4--12--------5-5-5-55-5555------------|
C|-5--5--10-10-12--5-55555555--5--5--10-10-10--5-5-5-55-5555------------|
G|-5--5--10-10-10--3-55555555--5--5--10-10-10--3-3-3-33-3333------------|
D|-3--3------------3-33333333--3--3------------3-3-3-33-3333------------|

D|-3--3------------3-33333333--3--3------------3-5-5-55-5555------------|
A|-3--3------------4-44444444--3--3-----10-11--4-4-4-44-4444------------|
F|-4--4--12-11-----5-55555555--4--4--12--------5-5-5-55-5555------------|
C|-5--5--10-10-12--5-55555555--5--5--10-10-10--5-5-5-55-5555------------|
G|-5--5--10-10-10--3-55555555--5--5--10-10-10--3-3-3-33-3333------------|
D|-3--3------------3-33333333--3--3------------3-3-3-33-3333------------|

D|-8-------7------8-------7---------------------------------------------|
A|-9-------7------9-------7---------------------------------------------|
F|-10------8------10------8---------------------------------------------|
C|-10-(x8)-9-(x8)-10-(x8)-9-(x4)----------------------------------------|
G|-8-------9------8-------9---------------------------------------------|
D|---------7--------------7---------------------------------------------|


D|--10----------------/11--10-11-13~-13/15--10-----------------------------------|
A|-----12----12/13-12--------------------------12----12/13-12--------------------|
F|--------12--------------------------------------12-----------12--7^-7/8-8/10---|
C|-------------------------------------------------------------------------------|
G|-------------------------------------------------------------------------------|
D|-------------------------------------------------------------------------------|

D|--10----------------/11--10-11-13~-13/15--10-----------------------------------|
A|-----12----12/13-12--------------------------12----12/13-12--------------------|
F|--------12--------------------------------------12-----------12--7^-7/8-8/10---|
C|-------------------------------------------------------------------------------|
G|-------------------------------------------------------------------------------|
D|-------------------------------------------------------------------------------|

D|-3--3------------3-33333333--3--3------------3-5-5-55-5555------------|
A|-3--3------------4-44444444--3--3-----10-11--4-4-4-44-4444------------|
F|-4--4--12-11-----5-55555555--4--4--12--------5-5-5-55-5555------------|
C|-5--5--10-10-12--5-55555555--5--5--10-10-10--5-5-5-55-5555------------|
G|-5--5--10-10-10--3-55555555--5--5--10-10-10--3-3-3-33-3333------------|
D|-3--3------------3-33333333--3--3------------3-3-3-33-3333------------|

D|-3--3------------3-33333333--3--3------------3~-----------------------|
A|-3--3------------4-44444444--3--3-----10-11--4~-----------------------|
F|-4--4--12-11-----5-55555555--4--4--12--------5~-----------------------|
C|-5--5--10-10-12--5-55555555--5--5--10-10-10--5~-----------------------|
G|-5--5--10-10-10--3-55555555--5--5--10-10-10--3~-----------------------|
D|-3--3------------3-33333333--3--3------------3~-----------------------|
            
Submit corrections


        Burn The Fleet lessons Hard to play? Try these video lessons and learn fast Burn The Fleet lessons
        
↑ Back to top | Tablatures and chords for acoustic guitar and electric guitar, ukulele, drums are parodies/interpretations of the original songs. You may use it for private study, scholarship, research or language learning purposes only