» » »

Thrice - Anthology Tabs

Artists:  A B C D E F G H I J K L M N O P Q R S T U V W X Y Z # 

Anthology Tabs

(ver. 1) Click to play this song!
Thrice
 Rating:
1.7/5 (30 votes)

 Anthology lessons Tabs too difficult? Try these video lessons and learn fast
 
                Tuning: Standard w/ Capo on 4th

E (022100), ESUS4 (022200) 

#\: Slide from

Intro:                            E      ESUS4  (Hear these ones out)  
e|4--4--4--4--2--2--2--2-----------------------------------------------------|
B|-2--2--2--2--2--2--2--2-x3-------------------------------------------------|
G|--4--4--4--4--4--4--4--4---------------------------------------------------|
D|---------------------------------------------------------------------------|
A|---------------------------------------------------------------------------|
E|---------------------------------------------------------------------------|

Verse:                                            E (On repeat omit *-* and play E)
e|------------------------------------------------*--------*-----------------|
B|0--0--0--0--2--2--2--2--5--5--7--7--9--9--9--9--0--0--2--2-----------------|
G|-1--1--1--1--1--1--1--1--6--6--6--6--6--6--6--6--1--1--1--1-x2-------------|
D|--2--2--2--2--2--2--2--2--7--7--7--7--7--7--7--7--2--2--2--2---------------|
A|---------------------------------------------------------------------------|
E|---------------------------------------------------------------------------|

Chorus: (This was a little tough to distinguish, you'll need to listen to the song)
                                                                E    
e|---0-0-0-0-0-0-0--0----0-0-0-0-0----0-0-0-0-0-0-0-0-0-0-0--0---------------|
B|1\4-4-4-4--4--4-4-4-4\5-5-5-5--5-5\4-4-4-4-4-4-4--4--4-4-4--4----x2--------|
G|---------------------------------------------------------------------------|
D|---------------------------------------------------------------------------|
A|---------------------------------------------------------------------------|
E|---------------------------------------------------------------------------|

Bridge:
e|---------------------------------------------------------------------------|
B|--7--7--5--5--4--4--4--4---------------------------------------------------|
G|4--4--4--4--4--4--4--4--4----4--4--2--2--1--1--1--1---x2---0000000000000---|
D|-6--6--6--6--6--6--6--6--6-2--2--2--2--2--2--2--2--2-------2222222222222---|
A|----------------------------4--4--4--4--4--4--4--4--4------3333333333333---|
E|---------------------------------------------------------------------------|            
Submit corrections


        Anthology lessons Hard to play? Try these video lessons and learn fast Anthology lessons
        
↑ Back to top | Tablatures and chords for acoustic guitar and electric guitar, ukulele, drums are parodies/interpretations of the original songs. You may use it for private study, scholarship, research or language learning purposes only