» » »

Thrice - Al Thats Left Tabs

Artists:  A B C D E F G H I J K L M N O P Q R S T U V W X Y Z # 

Al Thats Left Tabs

(ver. 1) Click to play this song!
Thrice
 Rating:
4/5 (4 votes)

 Al Thats Left lessons Tabs too difficult? Try these video lessons and learn fast
 
                X=palm mute

Intro and break
-----------5---------------------------5-5-5-3--5-5-5-3---------------------
-----5-----------5----8----5-----6-----5-5-5-3--5-5-5-3-----------------------
--5-----5----5-----5---5-----5---------5-5-5-3--5-5-5-3------------------------
  x     x    x    x    x     x         x x x x   x x x 

(repeat first part end on this)

-----7-------8-----------------------------------------------------------------------
---5-------5-------------------------------------------------------------------------
-5------5----------------------------------------------------------------------------
x  x    x  x
--55555555--33333333--11111111--33333333------------------------------
--55555555--33333333--11111111--33333333------------------------------
--55555555--33333333--11111111--33333333------------------------------

verses
-------12-12-12--------10-10-10---------8-8-8-------------------------------
---55--x---x-x-----55--x---x---x----55--x-x-x--5553--5553-------------------
---55-10-10-10-----55--8---8---8----55--6-6-6--5553--5553---------------------
---55------------- 55---------------55---------5553--5553---------------

chorus

-11111111--33333333--55555555--11111111--33333333--5553-5553-5553-5553---------
-11111111--33333333--55555555--11111111--33333333--5553-5553-5553-5553---------
-11111111--33333333--55555555--11111111--33333333--5553-5553-5553-5553---------
end second chorus with this 



-------------------------------------------------
-------------------------------------------------
-------------------------------------------------
-1-1-1-1-1-33333333-4444444444444444444-5--------
-1-1-1-1-1-33333333-4444444444444444444-5--------
-1-1-1-1-1-33333333-4444444444444444444-5--------
            
Submit corrections


        Al Thats Left lessons Hard to play? Try these video lessons and learn fast Al Thats Left lessons
        
↑ Back to top | Tablatures and chords for acoustic guitar and electric guitar, ukulele, drums are parodies/interpretations of the original songs. You may use it for private study, scholarship, research or language learning purposes only