» » »

Thrice - All The World Is Mad Tabs

Artists:  A B C D E F G H I J K L M N O P Q R S T U V W X Y Z # 

All The World Is Mad Tabs

(ver. 1) Click to play this song!
Thrice
 Rating:
4.5/5 (8 votes)

 All The World Is Mad lessons Tabs too difficult? Try these video lessons and learn fast
 
                "All The World Is Mad" By Thrice
The Rhythm isn't always exact, but good enough so that you know what part you're playing.
The notes are 100% though. In the Bridge i turned the two rhythm guitars into one.
One is just playing at a lower position so for the tab i just made it one part.
Oh and the tuning is correct because i snagged Teppei's setlist at a show
and he plays the same guitar he does for the other Drop C songs


INTRO
D--------2222222--------2222222----------------|
A-xxxxxx-3333333-xxxxxx-3333333----------------|
F-xxxxxx-4444444-xxxxxx-4444444---X2-----------|
C-xxxxxx-4444444-xxxxxx-4444444----------------|
G-xxxxxx-2222222-xxxxxx-2222222----------------|
C----------------------------------------------|


VERSE
D--------2222222--------2222222--------5555555--------5555555-|
A-xxxxxx-3333333-xxxxxx-3333333-xxxxxx-6666666-xxxxxx-6666666-|
F-xxxxxx-4444444-xxxxxx-4444444-xxxxxx-7777777-xxxxxx-7777777-|
C-xxxxxx-4444444-xxxxxx-4444444-xxxxxx-7777777-xxxxxx-7777777-|
G-xxxxxx-2222222-xxxxxx-2222222-xxxxxx-5555555-xxxxxx-5555555-|
C-------------------------------------------------------------|

D--------2222222--------2222222--------5555555--------5555555/777777-|
A-xxxxxx-3333333-xxxxxx-3333333-xxxxxx-6666666-xxxxxx-6666666/888888-|
F-xxxxxx-4444444-xxxxxx-4444444-xxxxxx-7777777-xxxxxx-7777777/999999-|
C-xxxxxx-4444444-xxxxxx-4444444-xxxxxx-7777777-xxxxxx-7777777/999999-|
G-xxxxxx-2222222-xxxxxx-2222222-xxxxxx-5555555-xxxxxx-5555555/777777-|
C--------------------------------------------------------------------|

D-2222222222222222222222222222-5555555555555555555555555555--------|
A-3333333333333333333333333333-6666666666666666666666666666-xxxxxx-|
F-4444444444444444444444444444-7777777777777777777777777777-xxxxxx-|
C-4444444444444444444444444444-7777777777777777777777777777-xxxxxx-|
G-2222222222222222222222222222-5555555555555555555555555555-xxxxxx-|
C------------------------------------------------------------------|

D-2222222222222222222222222222-55555555555555/777777/222222--------|
A-3333333333333333333333333333-66666666666666/888888/222222--------|
F-4444444444444444444444444444-77777777777777/999999/333333--------|
C-4444444444444444444444444444-77777777777777/999999/222222--------|
G-2222222222222222222222222222-55555555555555/777777/444444--------|
C------------------------------------------------------------------|


Chorus
Rythym
D-222222222222-777777777777-222222-00000/9-9-9--777777/222222----------|
A-333333333333-888888888888-333333-22222/101010-888888/222222----------|
F-444444444444-999999999999-444444-22222/111111-999999/333333---x2-----|
C-444444444444-999999999999-444444-22222/111111-999999/222222----------|
G-222222222222-777777777777-222222-00000/9-9-9--777777/444444----------|
C----------------------------------------------------------------------|

Lead
D----------------7-7---7----------------------------2-------|
A---7-7----7-7----8-----87---7-7--7-7-----8-8-8-8-----------|
F----7------7-----------------7----6-6---9-9-9-9-9/3-3------|
C-------------------------------------------------------X2--|
G-----------------------------------------------------------|
C-----------------------------------------------------------|


BRIDGE
D-2-2-2-2--0--7----------------10------------------------|
A-3-3-3-3--0-10b12--6-6-6-6-6--13b15--7------------------|
F-4-4-4-4--0--------7-7-7-7-7---------9b10---------------|
C-4-4-4-4-----------0-0-0-0-0----------------------------|
G-2-2-2-2-----------0-0-0-0-0----------------------------|
C-------------------0-0-0-0-0----------------------------|

D-2-2-2-2--0--7----------------10-----13-----------------|
A-3-3-3-3--0-10b12--6-6-6-6-6--13b15--16b18--------------|
F-4-4-4-4--0--------7-7-7-7-7----------------------------|
C-4-4-4-4-----------0-0-0-0-0----------------------------|
G-2-2-2-2-----------0-0-0-0-0----------------------------|
C-------------------0-0-0-0-0----------------------------|


Verse 2

D-555555/777777--------|
A-666666/888888--------|
F-777777/999999--------|
C-777777/999999--------|
G-555555/777777--------|
C----------------------|

D-2222222222222222222222222222-5555555555555555555555555555--------|
A-3333333333333333333333333333-6666666666666666666666666666-xxxxxx-|
F-4444444444444444444444444444-7777777777777777777777777777-xxxxxx-|
C-4444444444444444444444444444-7777777777777777777777777777-xxxxxx-|
G-2222222222222222222222222222-5555555555555555555555555555-xxxxxx-|
C------------------------------------------------------------------|

D-2222222222222222222222222222-55555555555555/777777/222222--------|
A-3333333333333333333333333333-66666666666666/888888/222222--------|
F-4444444444444444444444444444-77777777777777/999999/333333--------|
C-4444444444444444444444444444-77777777777777/999999/222222--------|
G-2222222222222222222222222222-55555555555555/777777/444444--------|
C------------------------------------------------------------------|


[Chorus]


Interlude
D----------------------------------------------------------|
A--------3--3--2--2--2--2------------10--10--8--8--8--8----|
F-----4---4--4--4--4--4--4-------7-----7---7--7--7--7--7---|
C---4--4---4--4--4--4--4--4---8---8-----8---8--8--8--8--8--|
G--2-2--2-------------------10-10--10----------------------|
C----------------------------------------------------------|

D------------------------------------------------------00--|
A--------3--3--2--2--2--2------------10--10--8--8---xxx-0--|
F-----4---4--4--4--4--4--4-------7-----7---7--7--7--xxx----|
C---4--4---4--4--4--4--4--4---8---8-----8---8--8--8-xxx----|
G--2-2--2-------------------10-10--10----------------------|
C----------------------------------------------------------|

D-------------------------------------------------------------|
A--------3--3--2--2--2--2------------10--10--8--8--8--8-------|
F-----4---4--4--4--4--4--4-------7-----7---7--7--7--7--7------|
C---4--4---4--4--4--4--4--4---8---8-----8---8--8--8--8--8--X3-|
G--2-2--2-------------------10-10--10-------------------------|
C-------------------------------------------------------------|

D---------------------------------0------0-----0-----0--------|
A--------3--3--2--2--2--2-------3---3--3--3--2--2--2--2-------|
F-----4---4--4--4--4--4--4-----2-2---22-2--22-2--22-2--2------|
C---4--4---4--4--4--4--4--4---0-------------------------------|
G--2-2--2-----------------------------------------------------|
C-------------------------------------------------------------|

D----1--0--01----1--0--01--------7--7--------7--7------------|
A--3--3--3---3-3--3--3---3----7---7--7----7---7--7-----------|
F-3-3--3--3---3-3--3--3-----7--7---7--7-7--7---7--7----------|
C--------------------------9-9--9------9-9--9----------------|
G------------------------------------------------------------|
C------------------------------------------------------------|


[Chorus]


Outro
D-2-2-2-2-2-2-2-2-2-2-2-2-2-2-2-2-2-2--2---------|
A-3-3-3-3-3-3-3-3-3-3-3-3-3-3-3-3-3-3--2---------|
F-4-4-4-4-4-4-4-4-4-4-4-4-4-4-4-4-4-4--3---------|
C-4-4-4-4-4-4-4-4-4-4-4-4-4-4-4-4-4-4--4---------|
G-2-2-2-2-2-2-2-2-2-2-2-2-2-2-2-2-2-2--4---------|
C------------------------------------------------|
            
Submit corrections


        All The World Is Mad lessons Hard to play? Try these video lessons and learn fast All The World Is Mad lessons
        
↑ Back to top | Tablatures and chords for acoustic guitar and electric guitar, ukulele, drums are parodies/interpretations of the original songs. You may use it for private study, scholarship, research or language learning purposes only