Home » T » Thorogood George »

Thorogood George - Bad To The Bone Tabs

Artists:  A B C D E F G H I J K L M N O P Q R S T U V W X Y Z # 

Bad To The Bone Tabs

(ver. 1) Click to play this song!
Thorogood George
PROPS GO TO: marcus

TUNED IN OPEN G! DGDGBd     (I'd recommend copying this and pasting it
to notepad so that I'll look right. I got this from Guitar Pro, and
Good Luck!)

Bad to the bone


George Thorogood
Guitar
Intro, solo1, solo2, Outro Guitar




D||-------------------------------|--0--------------0--------------|
B||----------------0-----5--0--3/-|--0--------------0-----5--0--3/-|
G||----------------0--0--5--0--3/-|--0--------------0--0--5--0--3/-|
D||----------------0--0--5--0--3/-|--0--------------0--0--5--0--3/-|
G||-------------------------------|--------------------------------|
D||-------------------------------|--------------------------------|



--0--------------0--------------|--0--------------0----------------|
--0--------------0-----5--0--3/-|--0--------------0-----5--0--3/12-|
--0--------------0--0--5--0--3/-|--0--------------0--0--5--0--3/12-|
--0--------------0--0--5--0--3/-|--0--------------0--0--5--0--3/12-|
--------------------------------|----------------------------------|
--------------------------------|----------------------------------|




--0--------15/---0----------------|--0-------------------0--------------
|
--0--------15/---0-------5--0--3/-|--0--11/---5/---12~---0-----5--0--3/-
|
--0--------------0----0--5--0--3/-|--0--11/---5/---12~---0--0--5--0--3/-
|
--0--------------0----0--5--0--3/-|--0--11/---5/---12~---0--0--5--0--3/-
|
----------------------------------|-------------------------------------
|
----------------------------------|-------------------------------------
|



-------------12----------------------------|
--0--11/-12------12---------------5--0--3/-|
--0--11/-12----------12----12--0--5--0--3/-|
--0------------------------12--0--5--0--3/-|
-------------------------------------------|
-------------------------------------------|



--0-------------------0--------------||---0----------------------------|
--0--11/---5/---12~---0-----5--0--3/-||---0-------------------5--0--3/-|
--0--11/---5/---12~---0--0--5--0--3/-||*--0----------------0--5--0--3/-|
--0--11/---5/---12~---0--0--5--0--3/-||*--0----------------0--5--0--3/-|
-------------------------------------||--------------------------------|
-------------------------------------||--------------------------------|


                                5x
--0-----------------------------||--0-------------------------12--|
--0-------------------5--0--3/--||--0-------------------5--0/-12--|
--0----------------0--5--0--3/-*||--0----------------0--5--0/-12--|
--0----------------0--5--0--3/-*||--0----------------0--5--0/-----|
--------------------------------||--------------------------------|
--------------------------------||--------------------------------|




--0--------12/---0----------------|-------------------------------------
|
--0--------12/---0-------5--0--3--|--0----------------------0-----0-----
|
--0--------------0----0--5--0--3--|--0--11/-12~-------12/---0--3--0-----
|
--0--------------0----0--5--0--3--|--0--11/-12~-------12/---0--3--0--4--
|
----------------------------------|-------------------------------------
|
----------------------------------|-------------------------------------
|



-------------12----------------------------|
-----------------12------------------------|
--0--11/-12----------12--12/---0-----0--3--|
--0--11/-12--------------12/---0/-3--0--3--|
-------------------------------------------|
-------------------------------------------|




-----3----2/3----2/3--0----------------|--------------------------------
----|
--0/-3----2/3----2/3--0----0-----------|--0----------------0----0-------
----|
--0/-3----2/3----2/3--0----0-----0--3--|--0--2/-3--3----3/-0----0--3--
0/-3--|
--0---------------------------3--0-----|--0--2/-3--3----3/-0----0--3--
0/-3--|
---------------------------------------|--------------------------------
----|
---------------------------------------|--------------------------------
----|



--0---------------------------------------|
--0---------------------------------------|
--0--11/---5/---12~-12~---12~-12~-12~-12~-|
--0--11/---5/---12~-12~---12~-12~-12~-12~-|
------------------------------------------|
------------------------------------------|



------------------------------------------12~-----|
--------------------------------------12~-----12~-|
--12~-12~-12~-12~-12~-12~-12~-12~-12~-------------|
--12~-12~-12~-12~-12~-12~-12~-12~-12~-------------|
--------------------------------------------------|
--------------------------------------------------|



------------------------------------------12~-----|
--------------------------------------12~-----12~-|
--12~-12~-12~-12~-12~-12~-12~-12~-12~-------------|
--12~-12~-12~-12~-12~-12~-12~-12~-12~-------------|
--12~-12~-12~-------------------------------------|
--------------------------------------------------|



----------------------------------12~-------------|
------------------------------12~-----12~---------|
--12~-12~-12~-12~-12~-12~-12~-------------12~-12~-|
--12~-12~-12~-12~-12~-12~-12~---------------------|
--12~-12~-12~-12~-12~-12~-------------------------|
--------------------------------------------------|



----------------------------------12~-------------|
--12~-12~---------------------12~-----12~---------|
--12~-12~-12~-12~-12~-12~-12~-------------12~-12~-|
----------12~-12~-12~-12~-12~-------------12~-12~-|
--------------12~-----12~-------------------------|
--------------------------------------------------|



---------------------------------------------0--|
---------------------------------------------0--|
--12--12--12--12--12--12--12--12--12--12/-0--0--|
--12--12--12--12--12--12--12--12--12--12/-0--0--|
------------------------------------------------|
------------------------------------------------|



--0-----------0--0------------12--||---0----------------------------|
--0-----------0--0------0-----12--||---0----------------0--5--0--3/-|
--0--------4--0--0------0--0/-12--||*--0----------------0--5--0--3/-|
--0--------4--0--0------0--0------||*--0----------------0--5--0--3/-|
----------------------------------||--------------------------------|
----------------------------------||--------------------------------|



--0----------------------------|--0----------------------------|
--0----------------0--5--0--3/-|--0----------------0--5--0--3/-|
--0----------------0--5--0--3/-|--0----------------0--5--0--3/-|
--0----------------0--5--0--3/-|--0----------------0--5--0--3/-|
-------------------------------|-------------------------------|
-------------------------------|-------------------------------|


                                2x
--0-----------------------------||--0------------12------------------|
--0----------------0--5--0--3/--||--0----------------0------5--0--3/-|
--0----------------0--5--0--3/-*||--0--------12------0------5--0--3/-|
--0----------------0--5--0--3/-*||--0--------12------0------5--0--3/-|
--------------------------------||-----------------------------------|
--------------------------------||-----------------------------------|



--------3--3--3--3--5-----------------|
--0/-3-----3--3--3-----0-----5--0--3--|
--0--------0--0--0--------0--5--0--3--|
--0--------------------------5--0--3--|
--------------------------------------|
--------------------------------------|



-------------12----------------------------|
-----------------12------------------------|
--0--11/-12----------12--12/---0-----0--3--|
--0--11/-12--------------12/---0/-3--0--3--|
-------------------------------------------|
-------------------------------------------|



--0-------------------------------------|
--0-----------------12~---12~-12~---12~-|
--0--11/---5/---12--12~---12~-12~---12~-|
--0--11/---5/---12----------------------|
----------------------------------------|
----------------------------------------|



------------------------------------------|
--12~---12~-12~---12~-12~---12~-12~---12~-|
--12~---12~-12~---12~-12~---12~-------12~-|
--12~---12~-12~---12~-12~---12~-------12~-|
--12~---12~-12~---12~-12~---12~-------12~-|
------------------------------------------|



------------------------------------------|
--------------------------------12~-------|
--12~---12~-12~---12~-12~---12~-12~---12~-|
--12~---12~-12~---12~-12~---12~-------12~-|
--12~---12~-12~---12~-12~---12~-------12~-|
------------------------------------------|



------------------------------12~-------------|
--------------------------12~-12~-12~---------|
--12~---12~-12~---12~-12~-------------12~-----|
--12~---12~-12~---12~-12~-----------------12~-|
--12~---12~-12~---12~-12~---------------------|
----------------------------------------------|



---------------------------------------|--0----------------------------|
--12~---12~-12~---12~-12/-----5/---3---|--0----------------0--5--0--3/-|
--12~---12~-12~---12~-12/-----5/---3-0-|--0----------------0--5--0--3/-|
--12~---12~-12~---12~-12/-----5/-------|--0----------------0--5--0--3/-|
---------------------------------------|-------------------------------|
---------------------------------------|-------------------------------|



--0----------------------------|--0------------12------------------|
--0----------------0--5--0--3/-|--0----------------0------5--0--3/-|
--0----------------0--5--0--3/-|--0--------12------0------5--0--3/-|
--0----------------0--5--0--3/-|--0--------12------0------5--0--3/-|
-------------------------------|-----------------------------------|
-------------------------------|-----------------------------------|



--------3--3--3--3--5-----------------|
--0/-3-----3--3--3-----0-----5--0--3--|
--0--------0--0--0--------0--5--0--3--|
--0--------------------------5--0--3--|
--------------------------------------|
--------------------------------------|



-------------12----------------------------|
-----------------12------------------------|
--0--11/-12----------12--12/---0-----0--3--|
--0--11/-12--------------12/---0/-3--0--3--|
-------------------------------------------|
-------------------------------------------|



--0-------------------------------------|
--0-----------------12~---12~-12~---12~-|
--0--11/---5/---12--12~---12~-12~---12~-|
--0--11/---5/---12----------------------|
----------------------------------------|
----------------------------------------|




------------------------------------------|--0--------------------------
--|
--12~---12~-12~---12~-12~---12~-12~---12~-|--0----------------0--5--0--
3/-|
--12~---12~-12~---12~-12~---12~-------12~-|--0----------------0--5--0--
3/-|
--12~---12~-12~---12~-12~---12~-------12~-|--0----------------0--5--0--
3/-|
--12~---12~-12~---12~-12~---12~-------12~-|-----------------------------
--|
------------------------------------------|-----------------------------
--|



--0----------------------------|--0------------12------------------|
--0----------------0--5--0--3/-|--0----------------0------5--0--3/-|
--0----------------0--5--0--3/-|--0--------12------0------5--0--3/-|
--0----------------0--5--0--3/-|--0--------12------0------5--0--3/-|
-------------------------------|-----------------------------------|
-------------------------------|-----------------------------------|



--------3--3--3--3--5-----------------|
--0/-3-----3--3--3-----0-----5--0--3--|
--0--------0--0--0--------0--5--0--3--|
--0--------------------------5--0--3--|
--------------------------------------|
--------------------------------------|



-------------12----------------------------|
-----------------12------------------------|
--0--11/-12----------12--12/---0-----0--3--|
--0--11/-12--------------12/---0/-3--0--3--|
-------------------------------------------|
-------------------------------------------|



--0-------------------------------------|
--0-----------------12~---12~-12~---12~-|
--0--11/---5/---12--12~---12~-12~---12~-|
--0--11/---5/---12----------------------|
----------------------------------------|
----------------------------------------|



------------------------------------------|
--12~---12~-12~---12~-12~---12~-12~---12~-|
--12~---12~-12~---12~-12~---12~-------12~-|
--12~---12~-12~---12~-12~---12~-------12~-|
--12~---12~-12~---12~-12~---12~-------12~-|
------------------------------------------|



------------------------------------------|
--------------------------------12~-------|
--12~---12~-12~---12~-12~---12~-12~---12~-|
--12~---12~-12~---12~-12~---12~-------12~-|
--12~---12~-12~---12~-12~---12~-------12~-|
------------------------------------------|



------------------------------12~-------------|
--------------------------12~-12~-12~---------|
--12~---12~-12~---12~-12~-------------12~-----|
--12~---12~-12~---12~-12~-----------------12~-|
--12~---12~-12~---12~-12~---------------------|
----------------------------------------------|



---------------------------------------|--0----------------------------|
--12~---12~-12~---12~-12/-----5/---3---|--0----------------0--5--0--3/-|
--12~---12~-12~---12~-12/-----5/---3-0-|--0----------------0--5--0--3/-|
--12~---12~-12~---12~-12/-----5/-------|--0----------------0--5--0--3/-|
---------------------------------------|-------------------------------|
---------------------------------------|-------------------------------|



--0----------------------------|--0-------------------------------|
--0----------------0--5--0--3/-|--0-------------------------------|
--0----------------0--5--0--3/-|--0-------------------------------|
--0----------------0--5--0--3/-|--0----0--3----3--2----2--1----1--|
-------------------------------|----------------------------------|
-------------------------------|----------------------------------|



-------1--2----3--------------|--3------------------------||
-------1--2----3--------------|--3------------------------||
---------------0--------------|--3------------------------||
--0---------------------------|---------------------------||
------------------------------|---------------------------||
------------------------------|---------------------------||

Thats all....
snopp
            
Submit corrections

↑ Back to top | Tablatures and chords for acoustic guitar and electric guitar, ukulele, drums are parodies/interpretations of the original songs. You may use it for private study, scholarship, research or language learning purposes only