» » »

This Providence - Letdown Tabs

Artists:  A B C D E F G H I J K L M N O P Q R S T U V W X Y Z # 

Letdown Tabs

(ver. 1) Click to play this song!
This Providence
 Rating:
4/5 (4 votes)

 Letdown lessons Tabs too difficult? Try these video lessons and learn fast
 
                Intro
Guitar 1
eb|---------------11-----------13-------------------------|
Bb|-----14----16-----14-----------14-------14----16-14-13-|
Gb|--13----13-----------13-----------13--13----13---------|
Db|-------------------------------------------------------|
Ab|-------------------------------------------------------|
Eb|-------------------------------------------------------|

Guitar 2 repeat
eb|------------|
Bb|------------|
Gb|-5h66666666-|
Db|------------|
Ab|------------|
Eb|------------|

Guitar 3/Bass
eb|---------------------------------------|
Bb|---------------------------------------|
Gb|-3-------6---------------6------5------|
Db|-3-(x16)-6-(x16)-4-(x16)-6-(x8)-5-(x8)-|
Ab|-1-------4-------4-------4------3------|
Eb|-----------------2---------------------|

Guitar 4!?
eb|-----------------------------------------------------|
Bb|-----6-6------------------------6-6------------------|
Gb|-6-8-----8-6---6-555-6------6-8-----8-6---6-555-6-3~-|
Db|-----------------------------------------------------|
Ab|-----------------------------------------------------|
Eb|-----------------------------------------------------|



Verse
Guitar 1
eb|---------------------------------------|
Bb|---------------------------------------|
Gb|-3-------6---------------6------5------|
Db|-3-(x16)-6-(x16)-4-(x16)-6-(x8)-5-(x8)-|
Ab|-1-------4-------4-------4------3------|
Eb|-----------------2---------------------|

Guitar 2 repeat 
eb|------------|
Bb|------------|
Gb|-5h66666666-|
Db|------------|
Ab|------------|
Eb|------------|

Pre Chorus
eb|---------|
Bb|---------|
Gb|---------|
Db|-4-------|
Ab|-4-(x16)-|
Eb|-2-------|


Chorus x2
eb|---------------------------------------|
Bb|---------------------------------------|
Gb|-6-------3-----------------------------|
Db|-6-(x16)-3-(x16)-6-(x16)-4-(x8)-6-(x8)-|
Ab|-4-------1-------6-------4------6------|
Eb|-----------------4-------2------4------|

Pre Verse
eb|-666-444----------------------------|
Bb|--------666-444---------------------|
Gb|----------------666666-555-33333333-|
Db|------------------------------------|
Ab|------------------------------------|
Eb|------------------------------------|


Verse 2 (same as Intro)
Guitar 1
eb|---------------11-----------13-------------------------|
Bb|-----14----16-----14-----------14-------14----16-14-13-|
Gb|--13----13-----------13-----------13--13----13---------|
Db|-------------------------------------------------------|
Ab|-------------------------------------------------------|
Eb|-------------------------------------------------------|

Guitar 2
eb|------------|
Bb|-5h66666666-|
Gb|------------|
Db|------------|
Ab|------------|
Eb|------------|

Guitar 3/Bass
eb|---------------------------------------|
Bb|---------------------------------------|
Gb|-3-------6---------------6------5------|
Db|-3-(x16)-6-(x16)-4-(x16)-6-(x8)-5-(x8)-|
Ab|-1-------4-------4-------4------3------|
Eb|-----------------2---------------------|


Repeat Pre Chorus and Chorus


Pre Verse
eb|-666-444----------------------------|
Bb|--------666-444---------------------|
Gb|----------------666666-555-33333333-|
Db|------------------------------------|
Ab|------------------------------------|
Eb|------------------------------------|

Bridge
eb|----------------|
Bb|----------------|
Gb|-6~-------------|
Db|-6~------4~---6~|
Ab|-4~------4~---6~|
Eb|---------2~---4~|

eb|------------------------|
Bb|------------------------|
Gb|-6----------------------|
Db|-6-(x16)-4------6-------|
Ab|-4-------4-(x8)-6-(x16)-|
Eb|---------2------4-------|

Repeat Chorus x2

End on
eb|----|
Bb|----|
Gb|-6~-|
Db|-6~-|
Ab|-4~-|
Eb|----|
            
Submit corrections


        Letdown lessons Hard to play? Try these video lessons and learn fast Letdown lessons
        
↑ Back to top | Tablatures and chords for acoustic guitar and electric guitar, ukulele, drums are parodies/interpretations of the original songs. You may use it for private study, scholarship, research or language learning purposes only