Home » T » This Beautiful Republic »

This Beautiful Republic - Right Now Tabs

Artists:  A B C D E F G H I J K L M N O P Q R S T U V W X Y Z # 

Right Now Tabs

(ver. 1) Click to play this song!
This Beautiful Republic
Band: This Beautiful Republic
Tuning: Standard


Okay, this one is for you TBR!  I said I was going to tab a bunch of your songs, here is
fo time for this, and did it by ear!  Oh and feel free to leave comments, and if you 
this tab then you have to rate it, 5out of 5 stars.  Thankyou.


Personaly done by me Cody Coffey!


Intro

e|--------------------------------------------------------|
B|-------6-9-9-9-9-6-6-6-6---6----------------------------|
G|-6-8-6-------------------8---8-6------------------------|
D|--------------------------------------------------------|
A|--------------------------------------------------------|
E|--------------------------------------------------------|

e|--------------------11-11-11-11-11-11-11-11-9(ring)-----|
B|-------6-11-11-11-11------------------------------------|
G|-6-8-6--------------------------------------------------|
D|--------------------------------------------------------|
A|--------------------------------------------------------|
E|--------------------------------------------------------|

Verse (if you did not play the intro then play this)

e|--------------------------------------------------------|
B|--------------------------------------------------------|
G|--------------------------------------------------------|
D|-6--6--6--6---------------------------------------------|
A|-4--4--4--4--4--4--4--4--8--8--8--8--6--6--6--6---------|
E|-------------2--2--2--2--6--6--6--6--4--4--4--4---------|

(go straight to this if you played the intro, this is continuing on from the verse)

e|--------------------------------------------------------|
B|--------------------------------------------------------|
G|--------------------------------------------------------|
D|-6--6--6--6---------------------------------------------|
A|-4--4--4--4--4--4--4--4--8--8--8--8--8--8--8--8---------|
E|-------------2--2--2--2--6--6--6--6--6--6--6--6---------|

e|--------------------------------------------------------|
B|--------------------------------------------------------|
G|--------------------------------------------------------|
D|-6--6--6--6---------------------------------------------|
A|-4--4--4--4--4--4--4--4--8--8--8--8--6--6--6--6---------|
E|-------------2--2--2--2--6--6--6--6--4--4--4--4---------|

Pre-Chorus

e|--------------------------------------------------------|
B|--------------------------------------------------------|
G|--------------------------------------------------------|
D|--------------------------------------------------------|
A|-4-4-4-4-4-4-4-4--8-8-8-8-8-8-8-8--4-4-4-4-4------------|
E|-2-2-2-2-2-2-2-2--6-6-6-6-6-6-6-6--2-2-2-2-2------------|

Chorus

e|--------------------------------------------------------------------|
B|--------------------------------------------------------------------|
G|-6-6-6-6-6-6-6-6----------------------------------------------------|
D|-6-6-6-6-6-6-6-6-4-4-4-4-4-4-4-4--8-8-8-8-8-8-8-8--6-6-6-6-9-9-9-9--|
A|-4-4-4-4-4-4-4-4-4-4-4-4-4-4-4-4--8-8-8-8-8-8-8-8--6-6-6-6-9-9-9-9--|
E|-----------------2-2-2-2-2-2-2-2--6-6-6-6-6-6-6-6--4-4-4-4-7-7-7-7--|


Pre-Chorus 2

e|---------------------------------------------------------------|
B|---------------------------------------------------------------|
G|---------------------------------------------------------------|
D|---------------------------------------------------------------|
A|-4-4-4-4-4-4-4-4--8-8-8-8-8-8-8-8--4-4-4-4-4-4-4-4--9-9-9-9-9--|
E|-2-2-2-2-2-2-2-2--6-6-6-6-6-6-6-6--2-2-2-2-2-2-2-2--7-7-7-7-7--|

Bridge (i put the (16x) and (8x) things there because thats just too much to type)

e|--------------------------------------------------------------------|
B|--------------------------------------------------------------------|
G|--------------------------------------------------------------------|
D|-6-6-6-6-6-6-6-6----------------------------------------------------|
A|-4-4-4-4-4-4-4-4-4(16x)-8(16x)-6(8x)-4(8x)-8(8x)-6(24x)-------------|
E|-----------------2(16x)-6(16x)-4(8x)-2(8x)-6(8x)-4(24x)-------------|


Alternative Pre-Chorus


e|-----------------------------------------------------------------|
B|-----------------------------------------------------------------|
G|-----------------------------------------------------------------|
D|-6--6--6-66666---------------------------------------------------|
A|-4--4--4-44444--4--4--4-44444--8--8--8-88888--6--6-6--9--9-99999-|
E|----------------2--2--2-22222--6--6--6-66666--4--4-4--7--7-77777-|


The order of the song


Intro 1x

Verse 1x

Pre-Chorus 1x

Chorus 2x

Intro 1x

Verse 1x

Pre-Chorus 2 1x

Chorus 2x

Bridge 1x

Alternative Pre-Chorus 1x

Chorus 3x (if you want with the same rythm as the Alt. Pre-Chorus it still sounds good,
i prefer the original)

Intro 1x


Well thats it for this tab, please rate it, you know it is correct, and feel free to
            
Submit corrections

↑ Back to top | Tablatures and chords for acoustic guitar and electric guitar, ukulele, drums are parodies/interpretations of the original songs. You may use it for private study, scholarship, research or language learning purposes only