» » »

Thin Lizzy - Southbound Tabs

Artists:  A B C D E F G H I J K L M N O P Q R S T U V W X Y Z # 

Southbound Tabs

(ver. 3) Click to play this song!
Thin Lizzy
 Rating:
4/5 (4 votes)

 Southbound lessons Tabs too difficult? Try these video lessons and learn fast
 
                This is the chorus to the above song - I forgot to add it to my posting ...

	C  F  G#    A# D#    C  F  G#    A# D#

Steve

[anonymous poster]

This is my humble contribution to the Thin Lizzy tabs. It's the solo
that starts at about two minutes into the song and lasts for about 30
seconds. Enjoy!



e:--------------------------------------------------------|
B:17b(19)-17-14-------------------------------------------|
G:--------------16b(18)16-14~----------14----16-14~-16-14~|
D:----------------------------16-14h16----16--------------|
A:--------------------------------------------------------|
E:--------------------------------------------------------|





e:------------14-17p14----14-16~-14----14h17p14----14---|
B:---------14----------17-----------17----------17----17|
G:-16b(18)----------------------------------------------|
D:------------------------------------------------------|
A:------------------------------------------------------|
E:------------------------------------------------------|





e:-----------------------------------------------------------------|
B:-12h13-12----12h13-----------------------------------------------|
G:----------14-------14-12-16b(18)16-14----------------------------|
D:--------------------------------------16-14-------------14-16-14~|
A:-----------------------------------------14-16-14-15-16----------|
E:-----------------------------------------------------------------|





e:-----------------------------------------------------------------------------|
B:-17-14----14-----------------------------------------------------------------|
G:-------16----16-14----16-14--------------------------------------------------|
D:-------------------16-------16-14----16p14----14\12----12\11----11\9----9\7--|
A:----------------------------------16-------16-------14-------12------11-----9|
E:-----------------------------------------------------------------------------|


                                                                         


e:-------------------------------------------------------------12-9-10-9|
B:---------------------------------------------10/12-10~-10-10----------|
G:-----------------9h11-9h11-------9/11-9~-9-9--------------------------|
D:-7-9p7-9-9/11-11-----------11-11--------------------------------------|
A:----------------------------------------------------------------------|
E:----------------------------------------------------------------------|


                                             


e:---------12--------------------------------|
B:-12b(14)----b(14)12p10----10-12p10----12p10|
G:-----------------------11----------11------|
D:-------------------------------------------|
A:-------------------------------------------|
E:-------------------------------------------|



This TAB transcription was created using TAB MASTER version 1.0
If you enjoy using this program, please consider telling the author

This program is freeware, but it took me some work to make it, so
your financial contribution is welcome.


*********************************************
|  Jan  (pronounced Yan, 'a' as in 'far')   |
*****************************************************************************
|  X.400      :  C=si;ADMD=mail;PRMD=ac;O=ijs;GIV=Jan;SUR=Kalin;  SEX=male  |
|  DECnet(YU) :  CATHY::JANK                                                |
|  SnailMail  :  Slomskova 19, 61000 Ljubljana, SLOVENIJA                   |
|  VoxPhone   :  +386 61 320-910                                            |
*****************************************************************************
            
Submit corrections


        Southbound lessons Hard to play? Try these video lessons and learn fast Southbound lessons
        
↑ Back to top | Tablatures and chords for acoustic guitar and electric guitar, ukulele, drums are parodies/interpretations of the original songs. You may use it for private study, scholarship, research or language learning purposes only