» » »

Thin Lizzy - Sarah Tabs

Artists:  A B C D E F G H I J K L M N O P Q R S T U V W X Y Z # 

Sarah Tabs

(ver. 3) Click to play this song!
Thin Lizzy
 Rating:
4/5 (4 votes)

 Sarah lessons Tabs too difficult? Try these video lessons and learn fast
 
                    Verse

   G                     BM7                AM7

e|---------------------------------2-------------------0---------------------|
B|------------3-----------------3-----3-------------1-----1------------------|
G|--------4------4-----------2-------------------0---------------------------|2X
D|-----5---------------------------------0-------------------0---------------|
A|-------------------5----2------------------0-------------------------------|
E|-3-------------------------------------------------------------------------|


   G                 C              D

e|-----------------------------------------3^2---------------2-----------------|
B|----------3-----------------3--1-----3-------3-----------3---3---------------|
G|-------4-----4-----------0--------2-------------2-----2---------2------------|
D|----5-----------------2----------------------------0-------------------------|
A|----------------5--3---------------------------------------------------------|
E|-3---------------------------------------------------------------------------|


   CMAJ/G

e|-----------------------------------------------------------------------------|
B|-----------0----------------0------------------------------------------------|
G|-------------0-----------------0------Repeat all-----------------------------|
D|--------2-------2-------2--------0------for verse 2--------------------------|
A|-----3----------------3------------------------------------------------------|
E|--3----------------3---------------------------------------------------------|


    SOLO

 e|-3---5---7----2----------------------------------------------------------|
B|---------------3---3------------1----3---5--3^5-3^0-----------------------|
G|---------------4-----4----------0-----------------------------------------|
D|---------------4-------4--------2--------------------2--------------------|
A|---------------2----------5--2--0-----------------------0-----------------|
E|--------------------------------------------------------------------------|

e|---------0-----------------------------------0-----------------0----------|
B|-1--3---------3---5--3--------------1----3-------3-----3---3--------------|
G|-------------------------2----------0------------0-----0------------------|
D|-----------------------------4------2------------0-----2------------------|
A|--------------2-----------------0---0------------0-----3------------------|
E|--------------------------------------------------------------------------|


e|--5------------------------0-------------0----------------------------------|
B|-------5\7/5----3--------------0---0---------0------------------------------|
G|----------------------------------------------------------------------------|
D|--------------------------------------------------------Verse 3-------------|
A|---------------------------------------------------0------------------------|
E|----------------------------------------------------------------------------|


Verse 1

Captains Harir, Shined softly in the sun,
Rode on his best mare, to Sarah

Verse 2

School boy eyes ,Would stare with innocent fun
Never told no lies , he loved sarah

Verse 3

Whispered by a bramble, carried by a brook
to every fishers hook  Sarah

Solo

Verse 4

Fragrant fields, Playing Croquet in the sun
Noting appeals like sarah

Whispered by a bramble,carried by a brook to every fishers hook Sarah
            
Submit corrections


        Sarah lessons Hard to play? Try these video lessons and learn fast Sarah lessons
        
↑ Back to top | Tablatures and chords for acoustic guitar and electric guitar, ukulele, drums are parodies/interpretations of the original songs. You may use it for private study, scholarship, research or language learning purposes only