» » »

The Zoo - Pain In My Heart Tabs

Artists:  A B C D E F G H I J K L M N O P Q R S T U V W X Y Z # 

Pain In My Heart Tabs

(ver. 2) Click to play this song!
The Zoo
 Rating:
4/5 (4 votes)


 Pain In My Heart lessons Tabs too difficult? Try these video lessons and learn fast
 
                Title of the Song: Pain in my heart

--------------------------------------------------------------------
 eto ung adlib part ng song.Di ako sure dito pero sa tingin ko,
tugma naman yung tabs eh,.hehe..try nio n lang,..8 minutes ko,.
lang kasi ginawa to,..kaya di ako sure,..dun sa guitar 1 dapat,.
mabilis ung fingers nio para hindi kayo mahuli sa bagsak ng
guitar 2,..enjoy playing!!!
--------------------------------------------------------------------

Guitar 1:
solo:
   C#m      F#m    C#m     F#m               B      E
e|--9--10-9---------9-----9----------------9-7--9-7--------|
B|--9-------12-10v--9---9---12-10v---7-9-10--7------10-9v--|
G|--10------13-11v--10------13-11v-----------8------11-9v--|
D|--11--------------11-----------------------9-------------|
A|---------------------------------------------------------|
E|---------------------------------------------------------|
    B       E      A
e|--7----7----------5-|
B|--7--7---7-9v--7--5-|
G|--8------8-9v--7--6-|
D|------------------7-|
A|--------------------|
E|--------------------|

Guitar 2: strum
   (isang bagsak lang kada chord)

    C#m  F#m  C#m  F#m  B  E  B  E  D A
e|--9----9----9----9----7--7--7--7--2-0---|
B|--9----10---9----10---7--9--7--9--3-2---|
G|--10---11---10---11---8--9--8--9--2-2---|
D|--11---11---11---11---9--9--9--9--0-2---|
A|--11---9----11---9----9--7--9--7--0-0---|
E|--9----9----9----9----7--7--7--7--0-0---|

kung meron kayong questions, comments or suggestions,...
mag-email na lang po kayu sa akin,..
thanks a lot,..
            
Submit corrections



        Pain In My Heart lessons Hard to play? Try these video lessons and learn fast Pain In My Heart lessons
        
↑ Back to top | Tablatures and chords for acoustic guitar and electric guitar, ukulele, drums are parodies/interpretations of the original songs. You may use it for private study, scholarship, research or language learning purposes only