» » »

The Young Romans - Tiger Child Tabs

Artists:  A B C D E F G H I J K L M N O P Q R S T U V W X Y Z # 

Tiger Child Tabs

(ver. 1) Click to play this song!
The Young Romans
 Rating:
4/5 (4 votes)

 Tiger Child  lessons Tabs too difficult? Try these video lessons and learn fast
 
                Tuning: DROP D
CAPO ON 3RD FRET

--INTRO/VERSE--

e|----------------------------------------------|
B|----3-3--3-----3-3--3-------3-3--3-----3-3--3-|
G|----2--2-2-----2--2-2-------2--2-2-----2--2-2-|
D|2h4-4----4--2--2----2--2h4--4----4--2--2----2-|
A|----------------------------------------------|
E|0-----------0----------0------------0---------| (2x)

e|------------0----0-----|
B|-2--2-2--2-----x--2-x--|
G|----2--2-2-----2----2--|
D|----0----0-----0----0--|
A|-----------------------|
E|-4----------4----------| (2X)

e|-2----2-----0----0-----0h2--2-----0----0----|
B|----3--3-3-----3--3-3-----3--3-3-----3--3-3-|
G|----2----2-----2----2-----2----2-----2----2-|
D|----0----0-----0----0-----0----0-----0----0-|
A|--------------------------------------------|
E|-0----------0----------0----------0---------|

e|---------------------------------------------|
B|-0h7-7-7--7--0--0-0--0-0h7-7-7--7--0--0-0--0-|
G|-----0--0-0-----0--0-0-----0--0-0-----0--0-0-|
D|-----0----0-----0----0-----0----0-----0----0-|
A|---------------------------------------------|
E|-5-----------5---------5-----------5---------|

--BRIDGE--

e|----2-2--2-----0-0--0-----2-2--2-----0-0--0-|
B|-3--3--3-3--2--2--2-2--3--3--3-3--2--2--2-2-|
G|--------------------------------------------|
D|--------------------------------------------|
A|--------------------------------------------|
E|-2----------2----------2----------2---------|

e|-----------------------------------------|
B|-0h7-7-7--7-0-0-0--0-0h7-7-7--7-0-0-0--0-|
G|-----0--0-0---0--0-0-----0--0-0---0--0-0-|
D|-----0----0---0----0-----0----0---0----0-|
A|-----------------------------------------|
E|-5----------5--------5----------5--------|

e|----2-2--2-----0-0--0-----0-0--0-----0-0--0-|
B|-3--3--3-3--2--2--2-2--0--0--0-0--2--2--2-2-|
G|--------------------------------------------|
D|--------------------------------------------|
A|--------------------------------------------|
E|-2----------2----------2----------2---------|

--VERSE 2--

e|----------------------------------------------|
B|----3-3--3-----3-3--3-------3-3--3-----3-3--3-|
G|----2--2-2-----2--2-2-------2--2-2-----2--2-2-|
D|2h4-4----4--2--2----2--2h4--4----4--2--2----2-|
A|----------------------------------------------|
E|0-----------0----------0------------0---------|

e|------------0----0-----------------0----0-----|
B|-2--2-2--2-----x--2-x---2--2-2--2-----x--2-x--|
G|----2--2-2-----2----2------2--2-2-----2----2--|
D|----0----0-----0----0------0----0-----0----0--|
A|----------------------------------------------|
E|-4----------4-----------4----------4----------|

e|-2----2-----0----0-----0h2--2-----0----0----|
B|----3--3-3-----3--3-3-----3--3-3-----3--3-3-|
G|----2----2-----2----2-----2----2-----2----2-|
D|----0----0-----0----0-----0----0-----0----0-|
A|--------------------------------------------|
E|-0----------0----------0----------0---------|

e|---------------------------------------------|
B|-0h7-7-7--7--0--0-0--0-0h7-7-7--7--0--0-0--0-|
G|-----0--0-0-----0--0-0-----0--0-0-----0--0-0-|
D|-----0----0-----0----0-----0----0-----0----0-|
A|---------------------------------------------|
E|-5-----------5---------5-----------5---------|

--BRIDGE--

e|----2-2--2-----0-0--0-----2-2--2-----0-0--0-|
B|-3--3--3-3--2--2--2-2--3--3--3-3--2--2--2-2-|
G|--------------------------------------------|
D|--------------------------------------------|
A|--------------------------------------------|
E|-2----------2----------2----------2---------|

e|-----------------------------------------|
B|-0h7-7-7--7-0-0-0--0-0h7-7-7--7-0-0-0--0-|
G|-----0--0-0---0--0-0-----0--0-0---0--0-0-|
D|-----0----0---0----0-----0----0---0----0-|
A|-----------------------------------------|
E|-5----------5--------5----------5--------|

e|----2-2--2-----0-0--0-----0-0--0-----0-0--0-|
B|-3--3--3-3--2--2--2-2--0--0--0-0--2--2--2-2-|
G|--------------------------------------------|
D|--------------------------------------------|
A|--------------------------------------------|
E|-2----------2----------2----------2---------|

e|----------------------------------------------|
B|----3-3--3-----3-3--3-------3-3--3-----3-3--3-|
G|----2--2-2-----2--2-2-------2--2-2-----2--2-2-|
D|2h4-4----4--2--2----2--2h4--4----4--2--2----2-|
A|----------------------------------------------|
E|0-----------0----------0------------0---------|

--CHORDUS--

e|----------------------------------------------|
B|----3-3--3-----3-3--3-------3-3--3-----3-3--3-|
G|----2--2-2-----2--2-2-------2--2-2-----2--2-2-|
D|2h4-4----4--2--2----2--2h4--4----4--2--2----2-|
A|----------------------------------------------|
E|0-----------0----------0------------0---------|

  "Tonight..."             "I'm not gonna--"

e|-----------------------------------------|
B|-0h7-7-7--7-0-0-0--0-0h7-7-7--7-0-0-0--0-|
G|-----0--0-0---0--0-0-----0--0-0---0--0-0-|
D|-----0----0---0----0-----0----0---0----0-|
A|-----------------------------------------|
E|-5----------5--------5----------5--------|

  "--Fight..."                     "Just--"

e|----2-2--2-----0-0--0-----0-0--0-----0-0--0-|
B|-3--3--3-3--2--2--2-2--0--0--0-0--2--2--2-2-|
G|--------------------------------------------|
D|--------------------------------------------|
A|--------------------------------------------|
E|-2----------2----------2----------2---------|

  "--Wanna be the victim of...     Burnin' bright--"

e|----------------------------------------------|
B|----3-3--3-----3-3--3-------3-3--3-----3-3--3-|
G|----2--2-2-----2--2-2-------2--2-2-----2--2-2-|
D|2h4-4----4--2--2----2--2h4--4----4--2--2----2-|
A|----------------------------------------------|
E|0-----------0----------0------------0---------|

  "--Tonight."                "No this ain't my--"

e|-----------------------------------------|
B|-0h7-7-7--7-0-0-0--0-0h7-7-7--7-0-0-0--0-|
G|-----0--0-0---0--0-0-----0--0-0---0--0-0-|
D|-----0----0---0----0-----0----0---0----0-|
A|-----------------------------------------|
E|-5----------5--------5----------5--------|

  "--Style."

e|----2-2--2-----0-0--0-----0-0--0-----0-0--0-|
B|-3--3--3-3--2--2--2-2--0--0--0-0--2--2--2-2-|
G|--------------------------------------------|
D|--------------------------------------------|
A|--------------------------------------------|
E|-2----------2----------2----------2---------|

  "But there's..."       "That's got me..."

e|---------------------|
B|-0h7-7-7--7-0-0-0--0-|
G|-----0--0-0---0--0-0-|
D|-----0----0---0----0-|
A|---------------------|
E|-5----------5--------|

  "My tiger..."  

e|----------------------------------------------|
B|----3-3--3-----3-3--3-------3-3--3-----3-3--3-|
G|----2--2-2-----2--2-2-------2--2-2-----2--2-2-|
D|2h4-4----4--2--2----2--2h4--4----4--2--2----2-|
A|----------------------------------------------|
E|0-----------0----------0------------0---------|

  "My tiger child..."

--REPEAT VERSE/BRIDGE/CHORUS--            
Submit corrections


        Tiger Child  lessons Hard to play? Try these video lessons and learn fast Tiger Child  lessons
        
↑ Back to top | Tablatures and chords for acoustic guitar and electric guitar, ukulele, drums are parodies/interpretations of the original songs. You may use it for private study, scholarship, research or language learning purposes only