» » »

The Xx - Teardrops Tabs

Artists:  A B C D E F G H I J K L M N O P Q R S T U V W X Y Z # 

Teardrops Tabs

(ver. 1) Click to play this song!
The Xx
 Rating:
2.7/5 (7 votes)

 Teardrops lessons Tabs too difficult? Try these video lessons and learn fast
 
                The XX - Teardrops


I couldn't find a good tab of this great cover and i was boring ..
It's something like that...

Chords

E      5         10
B      6         11
G      7         12
D      7         12
A      5         10
E      5         10

INTRO

|-------(5)---all along----------------------------------------|
|--------6-----------------------------------------------------|
|--------7-----------------------------------------------------|
|--------7-----------------------------------------------------|
|--------5-----------------------------------------------------|
|--------------------------------------------------------------|

1 part

|------55--------------------------55-------------------------|
|----------66-------------------------66---------11-11--8-8---|
|---77---------77--99-10-10-99--77-------77--99---------------|x 2
|-------------------------------------------------------------|
|-------------------------------------------------------------|
|-------------------------------------------------------------|

|---5-------5------5------etc----10--------10------10---------|
|---6-------6------6-------------11--------11------11---------|
|---7-------7------7-------------12--------12------12---------|
|-------------------------------------------------------------|
|-------------------------------------------------------------|
|-------------------------------------------------------------|

2 part

|-------------------------------------------------------------|
|-------------------------------------------------------------|
|---14-14----------------------14-14--------------14-14-------|
|----------15-15--12-12--15-15-------15-15--12-12-------------|
|-------------------------------------------------------------|
|-------------------------------------------------------------|


|-------------------------------------------------------------|
|-------------------------------------------------------------|
|-----777777-----999999-------777777-------999999-------------|
|-------------------------------------------------------------|
|-------------------------------------------------------------|
|-------------------------------------------------------------|

Have fun
            
Submit corrections


        Teardrops lessons Hard to play? Try these video lessons and learn fast Teardrops lessons
        
↑ Back to top | Tablatures and chords for acoustic guitar and electric guitar, ukulele, drums are parodies/interpretations of the original songs. You may use it for private study, scholarship, research or language learning purposes only