Home » T » The Xx »

The Xx - Night Time Bass

Artists:  A B C D E F G H I J K L M N O P Q R S T U V W X Y Z # 

Night Time Bass

(ver. 1) Click to play this song!
The Xx
the XX - night time


listen the song for the right timing and rhythm

intro

G------------------------------------------------------|
D------------------------------------------------------|
A 99-9-9-77-7-7/1616-16-16-1616-16-16\99-9-9-77-7-7/16-|
E------------------------------------------------------|

verse x 4

G------------------------------------|
D------------------------------------|
A 9----------------------------------|
E------------------------------------|

chorus x 2

G------------------------------------|
D---------------9-------11-----------|
A-12\9--12-11-7---7---9--------------|
E-------------------9-----9----------|

verse

G-----------------------------------|    x 4
D-----------------------------------|
A-9---------------------------------|
E-----------------------------------|

G-----------------------------------|
D-----------------------------------|
A-12--------------14----------------|
E-----------------------------------|

G-----------------------------------|
D-----------------------------------|
A-12--12--12--12--14--14--14--------|
E-----------------------------------|

bridge

G----------------------------------------------------------------------|
D----------------------------------------------------------------------|
A12\9-9-999\4-44444/9-999-9-99999-9/12-121212-12-1212121212-12/14------|
E----------------------------------------------------------------------|

G--------------------|
D--------------------|
A141414-14-1414141414|
E--------------------|

chorus x 2

alt bridge

G---------------------------------------------------------------------------|
D---------------------------------------------------------------------------|
A12\99-9-9\44-4-4/99-9-9-99-9-9/1212-12-12-1212-12-12/1414-14-14-1414-14-14-|
E---------------------------------------------------------------------------|

G------------------------------------|
D------------------------------------|
A1212-12-12-1212-12-12/1414-14-14-14-|
E------------------------------------|

G-------------------------------------------------------------------------|
D-------------------------------------------------------------------------|
A/9-9-999-9777777-7\4-444-4-44444/12-121212-121212-121212-12/14-141414-14-|
E-------------------------------------------------------------------------|

chorus x 2

final

G------------------------------------------|
D------------------------------------------|
A-12-11-9-8-9------------------------------|
E------------------------------------------|
            
Submit corrections

↑ Back to top | Tablatures and chords for acoustic guitar and electric guitar, ukulele, drums are parodies/interpretations of the original songs. You may use it for private study, scholarship, research or language learning purposes only