» » »

The Xx - Infinity Tabs

Artists:  A B C D E F G H I J K L M N O P Q R S T U V W X Y Z # 

Infinity Tabs

(ver. 2) Click to play this song!
The Xx
 Rating:
4.2/5 (5 votes)

 Infinity lessons Tabs too difficult? Try these video lessons and learn fast
 
                Hy,
I really love this Album and this song, but there was no tab for the solo and the other 
so I made this, my first one. :-)

The Song is mostly a Bm-A-E Progression as open chords.

e:--2--0--0--0---------------------------------------------------------|
B:--3--2--0--0---------------------------------------------------------|
G:--4--2--1--1---------------------------------------------------------|
D:--4--2--2--2---------------------------------------------------------|
A:--X--0--2--2---------------------------------------------------------|
E:--x--X--X--X---------------------------------------------------------|

Sometimes Romy throws in some accents like this:

e:--2--2-----0--0-----0--0---------------------------------------------|
B:--3-----3--2-----2--0--0---------------------------------------------|
G:--4--------2--------1--1---------------------------------------------|
D:--4--------2--------2--2---------------------------------------------|
A:--X--------0--------2--2---------------------------------------------|
E:--X--------X--------X--X---------------------------------------------|


There is sometimes this part, mostly after the solo, which can be played in many ways, 
it's mostly the Bm-A-E progression but picking alternate 2 strings or strumming 2 strings 
once.
There are this shapes to play this part.

I prefer this version:

e:------------------------------------------------------------------|
B:------------------------------------------------------------------|
G:------------------------------------------------------------------|
D:--4--2--2---------------------------------------------------------|
A:--2--0--2---------------------------------------------------------|
E:------------------------------------------------------------------|

e:------------------------------------------------------------------|
B:------------------------------------------------------------------|
G:--7--8--1---------------------------------------------------------|
D:--9--7--2---------------------------------------------------------|
A:------------------------------------------------------------------|
E:------------------------------------------------------------------|

e:------------------------------------------------------------------|
B:--3--2--0---------------------------------------------------------|
G:--4--2--1---------------------------------------------------------|
D:------------------------------------------------------------------|
A:------------------------------------------------------------------|
E:------------------------------------------------------------------|

e:------------------------------------------------------------------|
B:------------------------------------------------------------------|
G:--4--2--1---------------------------------------------------------|
D:--4--2--2---------------------------------------------------------|
A:------------------------------------------------------------------|
E:------------------------------------------------------------------|


Solo/Outro: You can play the F#(16th fret) note on the D string on the G string (11th 
but i like the slide up you can make on the D string.

e:------------------------------------------------------------------|
B:------------------------------------------------------------------|
G:-----------------------11--9--7--7--9-----------------------------|
D:--9--11--12--16--9--9------------------9--9--10--11---------------|
A:------------------------------------------------------------------|
E:------------------------------------------------------------------|

e:------------------------------------------------------------------|
B:------------------------------------------------------------------|
G:------------------------------------------------------------------|
D:--11--11--10--11--10--11--10--11--10--11/16--9--------------------|
A:------------------------------------------------------------------|
E:------------------------------------------------------------------|

This part is played until the end many many times, and then comes the solo/outro again.

e:------------------------------------------------------------------------|
B:------------------------------------------------------------------------|
G:-7-----6-----9-----7-----6-----9-----7-----6-----9-----7-----6-----9----|
D:----9-----7-----9-----9-----7-----9-----9-----7-----9-----9-----7-----9-|
A:------------------------------------------------------------------------|
E:------------------------------------------------------------------------|

I really hope this tab is right and it help's you.
            
Submit corrections


        Infinity lessons Hard to play? Try these video lessons and learn fast Infinity lessons
        
↑ Back to top | Tablatures and chords for acoustic guitar and electric guitar, ukulele, drums are parodies/interpretations of the original songs. You may use it for private study, scholarship, research or language learning purposes only