» » »

The Xx - Angels Tabs

Artists:  A B C D E F G H I J K L M N O P Q R S T U V W X Y Z # 

Angels Tabs

(ver. 1) Click to play this song!
The Xx
 Rating:
4/5 (4 votes)

 Angels lessons Tabs too difficult? Try these video lessons and learn fast
 
                This is my second tab, this song was released by my favourite band about 18 hours ago 
and I fell in love instantly, obviously to be expected, I tabbed it out right away and 
figured out the chords. Really simple.

Verses:

D(5th fret), A(7th Fret), E(7th fret)

e|----------------9---9---9---9------------------------------------|
B|7---7---7---7-----10--10--10--10-9---9---9---9---7---7---7---7---|
G|--7---7---7---7--------------------9---9---9---9---7---7---7---7-|
D|-----------------------------------------------------------------|
A|-----------------------------------------------------------------|
E|-----------------------------------------------------------------|

Chorus:

F#m/Gbm(9th fret), G#/Abm(11th fret), G(12th fret)

e|-----------------------------------------------------------------|
B|-----------------------------------------------------------------|
G|---1-2---1-2---1-2-----------------------------------------------|
D|-4-----4-----4-----4---------------------------------------------|
A|-----------------------------------------------------------------|
E|-----------------------------------------------------------------|

Use your ears around this and you'll nail it.
Let me know if you know better.
            
Submit corrections


        Angels lessons Hard to play? Try these video lessons and learn fast Angels lessons
        
↑ Back to top | Tablatures and chords for acoustic guitar and electric guitar, ukulele, drums are parodies/interpretations of the original songs. You may use it for private study, scholarship, research or language learning purposes only