Home » T » The Wreckers »

The Wreckers - Rain Ukulele

Artists:  A B C D E F G H I J K L M N O P Q R S T U V W X Y Z # 

Rain Ukulele

(ver. 1) Click to play this song!
The Wreckers
This is another easy Wreckers tab. great song. Enjoy! -Ashley


Intro:
|---------------------------------------------------------------|
|---15--13--15-----13--11--13----12--13--12-----10--8--10-8-----|
|-------------------------------------------------------------9-|
|---------------------------------------------------------------|
|---------------------------------------------------------------|
|---------------------------------------------------------------|

        Am                  Cadd9                     D

|-----------------0---------------------3------------2------------|
|----------------------------------------------------------3------|
|-----------2-----------------------0---------------------------2-|
|------2----------------------2---------------0-------------------|
|--0---------------------3----------------------------------------|
|-----------------------------------------------------------------|

Am       Cadd9          D
    You never give up
Am              Cadd9   D
    I can't believe anything you say
Am         Cadd9       D
    And it must be my luck
Am            Cadd9              D
    'Cause no one else gets treated this way

Am         C         D
    And I wanna know
Am             C         D
    What goes on in that head of yours
Am           C         D
    Yeah, I wanna know
Am                  C           D
    'Cause I don't think I can take much more


Am       C         G
Ra......in
Am          C
You must be sick or something
G
I can't take another day
Am       C        G
Ra......in
Am          C
Is falling down
              G
But will the sun come out again?

        Am                  Cadd9                     D

|-----------------0---------------------3------------2------------|
|----------------------------------------------------------3------|
|-----------2-----------------------0---------------------------2-|
|------2----------------------2---------------0-------------------|
|--0---------------------3----------------------------------------|
|-----------------------------------------------------------------|


Am    C              D
    I never speak up
Am         C            D
    I just try and stay out of the way
Am        C                D
    But I must have messed up
Am                C     C
    'Cause that's all I hear you say

Am        C            D
    And I wanna know
Am           C              D
    What on earth makes you act like this
Am           C          D
    Yeah, I wanna know
Am                 C            D
    'Cause I don't think I can take this sh*t

Am       C         G
Ra......in
Am          C
You must be sick or something
G
I can't take another day
Am       C        G
Ra......in
Am          C
Is falling down
              G
But will the sun come out again?

Am(one stroke)
               Sun come out x3

|-------|
|-------|
|-------|
|-------|
|-0h2p0-
|-----h3


Am       C         G
Ra......in
Am          C
You must be sick or something
G
I can't take another day
Am       C        G
Ra......in
Am          C
Is falling down
              G
But will the sun come out again?
            
Submit corrections

↑ Back to top | Tablatures and chords for acoustic guitar and electric guitar, ukulele, drums are parodies/interpretations of the original songs. You may use it for private study, scholarship, research or language learning purposes only