» » »

The Wombats - The English Summer Tabs

Artists:  A B C D E F G H I J K L M N O P Q R S T U V W X Y Z # 

The English Summer Tabs

(ver. 2) Click to play this song!
The Wombats
 Rating:
4.3/5 (23 votes)

 The English Summer  lessons Tabs too difficult? Try these video lessons and learn fast
 
                Tuning:EADGBE

Intro:
e|-------------------------------|
B|-------------------------------|
G|--5--8-8--3-3-/-10-10--13-13---|
D|--6--9-9--4-4-/-11-11--14-14---| x4
A|--6--9-9--4-4-/-11-11--14-14---|
E|--4--7-7--2-2-/-9--9---12-12---|

Verse Riff: (All Palm Muted)
e|--------------------------------------------------------------------------------------------------|
B|--------------------------------------------------------------------------------------------------|
G|--------------------------------------------------------------------------------------------------|
D|--6-6-4-6-4-6-6-6-4-4-4-------------------------------------------------------------4-/-6-4-6-4---| x2
A|--------------------------7-7-6-7-6-7-7-7-6-6-6---4-4-2-4-2-4-4-4-2-2-2---4-4-2-4-2---------------|
E|--------------------------------------------------------------------------------------------------|

Chorus:
e|-------------------------------|
B|-------------------------------|
G|--5--8-8--3-3-/-10-10--13-13---|
D|--6--9-9--4-4-/-11-11--14-14---| x2
A|--6--9-9--4-4-/-11-11--14-14---|
E|--4--7-7--2-2-/-9--9---12-12---|

Bridge:
e|-------------|
B|-------------|
G|--1-1--6-6---|
D|--2-2--6-6---|
A|--2-2--4-4---|
E|-------------|

Bridge Riff (after chords)
e|----------------------|
B|----------------------|
G|--4-6-4-4-4-6---------|
D|--------------4-5-6---| x2
A|----------------------|
E|----------------------|

Verse Riff: (All Palm Muted)
e|--------------------------------------------------------------------------------------------------|
B|--------------------------------------------------------------------------------------------------|
G|--------------------------------------------------------------------------------------1-1-1-------|
D|--6-6-4-6-4-6-6-6-4-4-4---------------------------------------------------------------2-2-2-------| x2
A|--------------------------7-7-6-7-6-7-7-7-6-6-6---4-4-2-4-2-4-4-4-2-2-2---4-4-2-4-2---2-2-2-------|
E|--------------------------------------------------------------------------------------------------|

Chorus:
e|-------------------------------|
B|-------------------------------|
G|--5--8-8--3-3-/-10-10--13-13---|
D|--6--9-9--4-4-/-11-11--14-14---| x4
A|--6--9-9--4-4-/-11-11--14-14---|
E|--4--7-7--2-2-/-9--9---12-12---|

Outro:
e|-------------------------------------------------------|
B|-------------------------------------------------------|
G|--1-1--6-6------------9-9--6-6------------9-----6------|
D|--2-2--6-6--6-6--8-8--9-9--6-6--6-6--8-8--9-----6--6---|
A|--2-2--4-4--6-6--8-8--7-7--4-4--6-6--8-8--7-----4--6---|
E|------------4-4--6-6------------4-4--6-6-----------4---|            
Submit corrections


        The English Summer  lessons Hard to play? Try these video lessons and learn fast The English Summer  lessons
        
↑ Back to top | Tablatures and chords for acoustic guitar and electric guitar, ukulele, drums are parodies/interpretations of the original songs. You may use it for private study, scholarship, research or language learning purposes only