Home » T » The Wombats »

The Wombats - Let Dance To Joy Division Bass

Artists:  A B C D E F G H I J K L M N O P Q R S T U V W X Y Z # 

Let Dance To Joy Division Bass

(Version #2)
The Wombats
-------------------------------------------------------------------------------
			     SONG NAME - Band Name
-------------------------------------------------------------------------------


Tuning: Standard EADG

Opening Riff
G|--------------8-8---8----------------9-9-11--13----------------------------|
D|--9-9---9-9-----------8--7-7---7-11----------------------------------------|
A|-------------6-6-6-6----------------7-7-9--11------------------------------|
E|-7-7-7-7-7-----------6--5-5-5-5-9------------------------------------------|

Main Verse "Im back in Liverpool.."
G|---------------------------------------------------------------------------|
D|---------------------------------------------------------------------------|
A|-------------6--------------------------------------------6------6-4-6-9---|
E|-7---------------------6-5----------9----------7---------------------------|

G|---------------------------------------------------------------------------|
D|---------------------------------------------------------------------------|
A|-9-11-11-11-11-9-9-9-9-11-11-11-11-9-9-9-9---------------------------------|
E|---------------------------------------------------------------------------|

Chorus "Lets dance to joy division..."
G|---------------------------------------------------------------------------|
D|---------------------------------------------------------------------------|
A|---------------------------------------------------------------------------|
E|-7-7-7-7-7-7-7-7-2-2-2-2-2-2-4-4-5-5-5-5-5-5-5-5-4-4-4-4-0-0-4-4-----------|

G|---------------------------------------------------------------------------|
D|---------------------------------------------------------------------------|
A|-----------6-7\------------------------------------------------------------|
E|-7-7-7-7-9-----2-2-2-2-2-2-4-4-5-5-5-5-5-5-5-5-4-4-4-4-0-0-4-4-0-0-4-4-0--4|

Repeat opening riff x1
Repeat verse x1 "So if youre ever feeling down..."

"And we will wait for you and lead you to the dancefloor..."
G|----------8-8-8-8-11-11-11-11--13--13-9-9--13--13--------------------------|
D|--9-9-9-9------------------------------------------------------------------|
A|---------6---6---9-----9-----11--11--7-7-11--11----------------------------|
E|-7---7-------------------------------------------0-------------------------|

Repeat Chorus

Break "So let the love tear us apart i found a cure..."
G|--------------------------------------------------------------8--8--8--8---|
D|--------------------------------------------------9--9--9--9---------------|
A|-------------6--6--6--6--9--9--9--9--------------------------6--6--6--6----|
E|-7--7--7--7--------------------------9--9--9--9--7--7--7--7----------------|

G|--11--11--11--11------------------------------8--8--8--8--11-11-11-11------|
D|------------------11--11--11--11--9--9--9--9-------------------------------|
A|-9---9---9---9-------------------------------6--6--6--6--9--9--9--9--------|
E|-----------------9---9---9---9---7--7--7--7--------------------------------|

G|---13--13-9-9--13--13------------------------------------------------------|
D|---------------------------------------------------------------------------|
A|-11--11--7-7-11--11--------------------------------------------------------|
E|----------------------0----------------------------------------------------|

Interlude x2
G|---------------------------------------------------------------------------|
D|---------------------------------------------------------------------------|
A|---------------------------------------------------------------------------|
E|-7777777722222222555555550000000077777777222222225555555500000000----------|

Then play the full chorus again...

And thats it!

| /  slide up
| \  slide down
| h  hammer-on
| p  pull-off
| ~  vibrato
| +  harmonic
| x  Mute note
===============================================================================
            
Submit corrections

↑ Back to top | Tablatures and chords for acoustic guitar and electric guitar, ukulele, drums are parodies/interpretations of the original songs. You may use it for private study, scholarship, research or language learning purposes only