Home » T » The Wombats »

The Wombats - Lemon To A Knife Fight Bass

Artists:  A B C D E F G H I J K L M N O P Q R S T U V W X Y Z # 

Lemon To A Knife Fight Bass

(ver. 1) Click to play this song!
The Wombats
[Intro]

G|---------------------------------------------------------------------------|
D|---------------------------------------------------------------------------|
A|---------------------------------------------------------------------------|
D|-0-------3--------7---------5----------------------------------------------|


[Verse]

G|---------------------------------|-----------------------------------------|
D|---------------------------------|-----------------------------------------|
A|---------------------------------|-----------------------------------------|
D|-0-------3--------7---------5----|-0-------3--------7--------5-------------|


[Chorus]

G|---------------------------------------------------------------------------|
D|---------------------------------------------------------------------------|
A|---------------------------------------------------------------------------|
D|-0-0--0-0-0--0-0--0-0-0--3-3--3-3-3--3-3--3-3-3--7-7--7-7-7--7-7--7-7-7----|

G|---------------------------------------------------------------------------|
D|---------------------------------------------------------------------------|
A|---------------------------------------------------------------------------|
D|-5-5--5-5-5--5-5--5-5-5----------------------------------------------------|

G|---------------------------------------------------------------------------|
D|---------------------------------------------------------------------------|
A|---------------------------------------------------------------------------|
D|-0-0--0-0-0--0-0--0-0-0--3-3--3-3-3--3-3--3-3-3--7-7--7-7-7--7-7--7-7-7----|

G|---------------------------------------------------------------------------|
D|---------------------------------------------------------------------------|
A|---------------------------------------------------------------------------|
D|-5-5--5-5-5--5-5--5-5-5----------------------------------------------------|


[Verse]

G|---------------------------------|-----------------------------------------|
D|---------------------------------|-----------------------------------------|
A|---------------------------------|-----------------------------------------|
D|-0-------3--------7---------5----|-0-----2-3--------7--------5-------------|


[Chorus]

G|---------------------------------------------------------------------------|
D|---------------------------------------------------------------------------|
A|---------------------------------------------------------------------------|
D|-0-0--0-0-0--0-0--0-2-2--3-3--3-3-3--3-3--3-3-3--7-7--7-7-7--7-7--7-7-7----|

G|---------------------------------------------------------------------------|
D|---------------------------------------------------------------------------|
A|---------------------------------------------------------------------------|
D|-5-5--5-5-5--5-5--5-5-5----------------------------------------------------|

G|---------------------------------------------------------------------------|
D|---------------------------------------------------------------------------|
A|---------------------------------------------------------------------------|
D|-0-0--0-0-0--0-0--0-2-2--3-3--3-3-3--3-3--3-3-3--7-7--7-7-7--7-7--7-7-7----|

G|---------------------------------------------------------------------------|
D|---------------------------------------------------------------------------|
A|---------------------------------------------------------------------------|
D|-5-5--5-5-5--5-5--5-5-5----------------------------------------------------|

G|---------------------------------------------------------------------------|
D|---------------------------------------------------------------------------|
A|---------------------------------------------------------------------------|
D|-0-0--0-0-0--0-0--0-2-2--3-3--3-3-3--3-3--3-3-3--7-7--7-7-7--7-7--7-7-7----|

G|---------------------------------------------------------------------------|
D|---------------------------------------------------------------------------|
A|---------------------------------------------------------------------------|
D|-5-5--5-5-5--5-5--5-5-5----------------------------------------------------|

G|---------------------------------------------------------------------------|
D|---------------------------------------------------------------------------|
A|---------------------------------------------------------------------------|
D|-0-0--0-0-0--0-0--0-2-2--3-3--3-3-3--3-3--3-3-3--7-7--7-7-7--7-7--7-7-7----|

G|---------------------------------------------------------------------------|
D|---------------------------------------------------------------------------|
A|---------------------------------------------------------------------------|
D|-5-5--5-5-5--5-5--5-5-5--5--5--5--5--5--5--5--5----------------------------|

G|---------------------------------------------------------------------------|
D|---------------------------------------------------------------------------|
A|---------------------------------------------------------------------------|
D|-0-0--0-0-0--0-0--0-2-2--3-3--3-3-3--3-3--3-3-3--7-7--7-7-7--7-7--7-7-7----|

G|---------------------------------------------------------------------------|
D|---------------------------------------------------------------------------|
A|---------------------------------------------------------------------------|
D|-5-5--5-5-5--5-5--5-5-5----------------------------------------------------|

G|---------------------------------------------------------------------------|
D|---------------------------------------------------------------------------|
A|---------------------------------------------------------------------------|
D|-0-0--0-0-0--0-0--0-2-2--3-3--3-3-3--3-3--3-3-3--7-7--7-7-7--7-7--7-7-7----|

G|---------------------------------------------------------------------------|
D|---------------------------------------------------------------------------|
A|---------------------------------------------------------------------------|
D|-5-5--5-5-5--5-5--5-5-5----------------------------------------------------|

G|---------------------------------------------------------------------------|
D|---------------------------------------------------------------------------|
A|---------------------------------------------------------------------------|
D|-0-0--0-0-0--0-0--0-2-2--3-3--3-3-3--3-3--3-3-3--7-7--7-7-7--7-7--7-7-7----|

G|---------------------------------------------------------------------------|
D|---------------------------------------------------------------------------|
A|---------------------------------------------------------------------------|
D|-5-5--5-5-5--5-5--5-5-5----------------------------------------------------|            
Submit corrections

↑ Back to top | Tablatures and chords for acoustic guitar and electric guitar, ukulele, drums are parodies/interpretations of the original songs. You may use it for private study, scholarship, research or language learning purposes only