» » »

The Wombats - Lemon To A Knife Fight Tabs

Artists:  A B C D E F G H I J K L M N O P Q R S T U V W X Y Z # 

Lemon To A Knife Fight Tabs

(ver. 1) Click to play this song!
The Wombats
 Rating:
4.3/5 (25 votes)

 Lemon To A Knife Fight lessons Tabs too difficult? Try these video lessons and learn fast
 
                [Intro]
GUITAR 1
e|--5-5-5-5-5----|
B|--4-4-4-4-4----|
G|--3-3-3-3-3----|
D|--3-3-3-3-3----|
A|--5-5-5-5-5----|
E|---------------|

e|--5-5-5-5-5---8--8--8--8--8----3-3-3-3-3---3-3-3-3-3------------------------|
B|--4-4-4-4-4---10-10-10-10-10---5-5-5-5-5---3-3-3-3-3------------------------|
B|--4-4-4-4-4---10-10-10-10-10---5-5-5-5-5---4-4-4-4-4------------------------|
D|--3-3-3-3-3---10-10-10-10-10---5-5-5-5-5---5-5-5-5-5------------------------|
A|--5-5-5-5-5---8--8--8--8--8----3-3-3-3-3---5-5-5-5-5------------------------|
E|----------------------------------------------------------------------------|

[GUITAR 2]
e|------------------------------------------|
B|------------------------------------------|
G|----10-10-10-7-----------10-10-10-7-7-7-7-|     X2
D|---------------10-7-10--------------------|
A|------------------------------------------|
E|------------------------------------------|

e|----------------------|
B|-------------8b-------|
G|----10-10-10---7-7-7--|    X4
D|----------------------|
A|----------------------|
E|----------------------|

[Bothe Verses]
e|--5-5-5-5-5---8--8--8--8--8----3-3-3-3-3---3-3-3-3-3------------------------|
B|--4-4-4-4-4---10-10-10-10-10---5-5-5-5-5---3-3-3-3-3------------------------|  
B|--4-4-4-4-4---10-10-10-10-10---5-5-5-5-5---4-4-4-4-4------------------------|   X2
D|--3-3-3-3-3---10-10-10-10-10---5-5-5-5-5---5-5-5-5-5------------------------|
A|--5-5-5-5-5---8--8--8--8--8----3-3-3-3-3---5-5-5-5-5------------------------|
E|----------------------------------------------------------------------------|

[All Chorus]
e|--5-5-5-5-5---8--8--8--8--8----3-3-3-3-3---3-3-3-3-3------------------------|
B|--4-4-4-4-4---10-10-10-10-10---5-5-5-5-5---3-3-3-3-3------------------------|
B|--4-4-4-4-4---10-10-10-10-10---5-5-5-5-5---4-4-4-4-4------------------------|
D|--3-3-3-3-3---10-10-10-10-10---5-5-5-5-5---5-5-5-5-5------------------------|
A|--5-5-5-5-5---8--8--8--8--8----3-3-3-3-3---5-5-5-5-5------------------------|
E|----------------------------------------------------------------------------|

e|------------------------------------------|
B|------------------------------------------|
G|----10-10-10-7-----------10-10-10-7-7-7-7-|     X2
D|---------------10-7-10--------------------|
A|------------------------------------------|
E|------------------------------------------|

e|----------------------|
B|-------------8b-------|
G|----10-10-10---7-7-7--|    X4
D|----------------------|
A|----------------------|
E|----------------------|

[Solo]
e|---------------------------------------------------------------------------|
B|---------------------------------------------------------------------------|
G|---------------------------------------------------------------------------| X4
D|---------------------------------------------------------------------------|
A|---0---0---3---7-----------------------------------------------------------|
E|---------------------------------------------------------------------------|

e|-----------------|-----------------|-----------------|-----------------|-----------------|----------------|
B|-------8---------|-------8---------|-------8---------|-------8---------|-------5-------5-|------5-------5-|
G|---5-------5-----|-5---5-----5---5-|-4---4-----4-----|-4---4-----4-----|-4---4-----4-----|--4-------4-----|
D|-7---7---------7-|---7-------------|---5-----------5-|---5-----------5-|---5---------5---|----5-------5---|
A|-----------------|-----------------|-----------------|-----------------|-----------------|----------------|
E|-----------------|-----------------|-----------------|-----------------|-----------------|----------------|

[Outro]
e|--5-5-5-5-5----|
B|--4-4-4-4-4----|
G|--3-3-3-3-3----|
D|--3-3-3-3-3----|
A|--5-5-5-5-5----|
E|---------------|            
Submit corrections


        Lemon To A Knife Fight lessons Hard to play? Try these video lessons and learn fast Lemon To A Knife Fight lessons
        
↑ Back to top | Tablatures and chords for acoustic guitar and electric guitar, ukulele, drums are parodies/interpretations of the original songs. You may use it for private study, scholarship, research or language learning purposes only