» » »

The Wombats - Backfire At The Disco Tabs

Artists:  A B C D E F G H I J K L M N O P Q R S T U V W X Y Z # 

Backfire At The Disco Tabs

(ver. 3) Click to play this song!
The Wombats
 Rating:
4.3/5 (6 votes)

 Backfire At The Disco lessons Tabs too difficult? Try these video lessons and learn fast
 
                -------------------------------------------------------------------------------
                             BACKFIRE AT THE DISCO - The Wombats
-------------------------------------------------------------------------------

Tuning: Standard
All the other ones were incomplete so i decided to help everyone out 

Use a telecaster with a little bit of gain just enough so you can hear breakup
i was a bit lazy tabbing out the rhythm for the chords so just listen to the song its not too hard

Intro: middle pickup
e|--------------------------------------------------------------------------|
B|--------------------------------------------------------------------------|
G|--14-14-13-13--------------14-14-13-13-------------14-14-13-13------------|
D|--------------12-12-11-11--------------12-12-11-11-------------12-12-11---|
A|---------------------------------------------------------------12-12-12---|
E|--------------------------------------------------------------------------|

Verse: bridge pickup
    A     F#   D    A 
e|--12----11---7----5-------------------------------------------------------|
B|--12----11---7----5-------------------------------------------------------|
G|--x-----x----x----6-------------------------------------------------------|
D|--14----11---7----7-------------------------------------------------------|
A|--12----9----5----7-------------------------------------------------------|
E|--12----9----5----5-------------------------------------------------------|

Verse pt2: neck pickup
e|--------------------------------------------------------------------------|
B|--------------------------------------------------------------------------|
G|--------------------------------------------------------------------------|
D|---11--11--11--11----11--11--11--11----9--9--9--9-----9--9--9--9----------|
A|-12--12--12--12----12--12--12--12----12-12-12-12----12-12-12-12-----------|
E|--------------------------------------------------------------------------|

e|--------------------------------------------------------------------------|
B|--------------------------------------------------------------------------|
G|--------------------------------------------------------------------------|
D|---9--9--9--9-----9--9--9--10------11--11--11--11-----11--11--11--11------|
A|--------------------------------/12--12--12--12-----12--12--12--12--------|
E|-10-10-10-10----10-10-10-10-----------------------------------------------|

Chorus: bridge pup
listen for the change from a the A to the E at the end
   A   F#    D    A    E(no5)
e|-5----2----5----5---------------------------------------------------------|
B|-5----2----7----5---------------------------------------------------------|
G|-6----2----7----6---------------------------------------------------------|
D|-7----4----7----7----6----------------------------------------------------|
A|-7----4----5----7----7----------------------------------------------------|
E|-5----2---------5----4----------------------------------------------------|
 
Post Chorus:
   A(no5)  D5    F#5  E(no5)  
e|--------------------------------------------------------------------------|
B|--------------------------------------------------------------------------|
G|-6-------7-----11------9--------------------------------------------------|
D|-7-------7-----11------6--------------------------------------------------|
A|-4-------5-----9-------7--------------------------------------------------|
E|--------------------------------------------------------------------------|

optional: repeated in background
e|--------------------------------------------------------------------------|
B|-14-12--------------------------------------------------------------------|
G|-------14-11--------------------------------------------------------------|
D|-------------14-----------------------------------------------------------|
A|--------------------------------------------------------------------------|
E|--------------------------------------------------------------------------|


Verse 2: bridge pup
    A     F#   D    A 
e|--12----11---7----5-------------------------------------------------------|
B|--12----11---7----5-------------------------------------------------------|
G|--x-----x----x----6-------------------------------------------------------|
D|--14----11---7----7-------------------------------------------------------|
A|--12----9----5----7-------------------------------------------------------|
E|--12----9----5----5-------------------------------------------------------|

Verse 2 pt2: bridge pup 
listen for rhythm
    A     F#   D    A 
e|--12----11---7----5-------------------------------------------------------|
B|--12----11---7----5-------------------------------------------------------|
G|--x-----x----x----6-------------------------------------------------------|
D|--14----11---7----7-------------------------------------------------------|
A|--12----9----5----7-------------------------------------------------------|
E|--12----9----5----5-------------------------------------------------------|

Chorus: bridge pup
   A   F#    D    A    
e|-5----2----5----5---------------------------------------------------------|
B|-5----2----7----5---------------------------------------------------------|
G|-6----2----7----6---------------------------------------------------------|
D|-7----4----7----7----14-14-13-13------------------------------------------|
A|-7----4----5----7----------------12-12-11-11------------------------------|
E|-5----2---------5---------------------------------------------------------|

   A   F#    D    A    
e|-5----2----5----5---------------------------------------------------------|
B|-5----2----7----5---------------------------------------------------------|
G|-6----2----7----6---------------------------------------------------------|
D|-7----4----7----7---------------------------------------------------------|
A|-7----4----5----7---------------------------------------------------------|
E|-5----2---------5---------------------------------------------------------|

Post Chorus:
   A(no5)  D5    F#5  E(no5)  
e|--------------------------------------------------------------------------|
B|--------------------------------------------------------------------------|
G|-6-------7-----11------9--------------------------------------------------|
D|-7-------7-----11------6----------------X2--------------------------------|
A|-4-------5-----9-------7--------------------------------------------------|
E|--------------------------------------------------------------------------|
   A    D    F#    E
e|-5----5----9-----7--------------------------------------------------------|
B|-5----7----10----9--------------------------------------------------------|
G|-6----7----11----9----------------------x4--------------------------------|
D|-7----7----11----9--------------------------------------------------------|
A|-7----5----9-----7--------------------------------------------------------|
E|-5------------------------------------------------------------------------|

Outro: middle pup
e|--------------------------------------------------------------------------|
B|--------5-----------------------------------------------------------------|
G|----6-------------9----------9------------------11------------X2----------|
D|--7---7-------7----------7-----7---7-------9------------------------------|
A|------------9---9------9---9-----9-----/11---11---------------------------|
E|--------------------------------------------------------------------------|

e|--------------------------------------------------------------------------|
B--------5------------------------------------------------------------------|
G|---6-------6---6--------9---------------9-----------------11--------------|
D|-7---7---7---7------7-------7--7----7------7--7------9----------9----9--X2|
A|-------------------9---9---9--9----9---9--9--9----/11---11----11---11-----|
E|--------------------------------------------------------------------------|

   A    D    F#    E
e|-5----5----9-----7--------------------------------------------------------|
B|-5----7----10----9--------------------------------------------------------|
G|-6----7----11----9-----x2-------------------------------------------------|
D|-7----7----11----9--------------------------------------------------------|
A|-7----5----9-----7--------------------------------------------------------|
E|-5------------------------------------------------------------------------|

end on:
e|--5--/---17----20-20-20-17-17-17~-----------------------------------------|
B|--5--/---17---------------------------------------------------------------|
G|--6--/---18---------------------------------------------------------------|
D|--7--/---19---------------------------------------------------------------|
A|--7--/---19---------------------------------------------------------------|
E|--5--/---17---------------------------------------------------------------|


| /  slide up
| \  slide down
| h  hammer-on
| p  pull-off
| ~  vibrato
| +  harmonic
| x  Mute note
===============================================================================
            
Submit corrections


        Backfire At The Disco lessons Hard to play? Try these video lessons and learn fast Backfire At The Disco lessons
        
↑ Back to top | Tablatures and chords for acoustic guitar and electric guitar, ukulele, drums are parodies/interpretations of the original songs. You may use it for private study, scholarship, research or language learning purposes only