» » »

The Whigs - Couple Of Kids Tabs

Artists:  A B C D E F G H I J K L M N O P Q R S T U V W X Y Z # 

Couple Of Kids Tabs

(ver. 1) Click to play this song!
The Whigs
 Rating:
4/5 (4 votes)

 Couple Of Kids lessons Tabs too difficult? Try these video lessons and learn fast
 
                -------------------------------------------------------------------------
-------------------------------------------------------------------------

Tuning: Standard

Pretty straight forward song.  Listen for timing.  Lyrics at bottom.


INTRO - Repeat as necessary
e|----------------------------------------|
B|----------------------------------------|
G|----------------------------------------|
D|------------------------------11-11-----|
A|------------------------------12-12-----|
E|-0-0-0-0--0-0-0-0--0-0-0-0--0-0--0--0---|

VERSE/CHORUS - the timing isn't perfect, but it's close.
               keep strumming that E string, you'll get the rhythm
e|------------------------------------------------|
B|------------------------------------------------|
G|------------------------------------------------|
D|----11-11----9--9--9--------7--7-----6--6--6--6-|
A|----12-12----11-11-11-------9--9-----7--7--7--7-|
E|-0--0--0--0--0--0--0--0--0--0--0--0--0--0--0--0-|

BRIDGE - Essentially variations on an A chord.
         It follows the piano line.
(At 1:40 and 2:32)
e|-0-0-0-0-0-0-0-0-0-0-0-0-0-|
B|-2-2-2-0-2-0-3-3-0-2-0-2-0-|
G|-2-2-2-2-2-2-2-2-2-2-2-2-2-|
D|-2-2-2-2-2-2-2-2-2-2-2-2-2-|
A|-0-0-0-0-0-0-0-0-0-0-0-0-0-|
E|---------------------------|

e|------------------------------------------------|
B|------------------------------------------------|
G|------------------------------------------------|
D|----11-11----9--9--9--------7--7-----6--6--6--6-|
A|----12-12----11-11-11-------9--9-----7--7--7--7-|
E|-0--0--0--0--0--0--0--0--0--0--0--0--0--0--0--0-|

e|-0-0-0-0-0-0-0-0-0-0-0-0-0-|
B|-2-2-2-0-2-0-3-3-0-2-0-2-0-|
G|-2-2-2-2-2-2-2-2-2-2-2-2-2-|
D|-2-2-2-2-2-2-2-2-2-2-2-2-2-|
A|-0-0-0-0-0-0-0-0-0-0-0-0-0-|
E|---------------------------|

---LYRICS---

WE'VE BEEN IN LOVE FOR SO LONG THAT IT'S ONLY NATURAL 

FOR YOU TO THINK THAT WE'RE ALL DONE... 
WE'RE JUST A COUPLE OF KIDS BABY 

WE'RE JUST A COUPLE OF KIDS BABY 
WE'RE JUST A COUPLE OF KIDS BABY 

CAUSE GIRL YOU KNOW I LOVE YOU SO AND IT'S NOT IMPOSSIBLE 
WE SETTLE DOWN AND START A HOME... HAVE A COUPLE OF KIDS MAYBE 

WE'LL HAVE A COUPLE OF KIDS MAYBE 
WE'LL HAVE A COUPLE OF KIDS BABY 

WE'RE WALKING DOWN A WELL WORN ROAD AND IT'S JUST SO OBVIOUS 
I KISS YOUR HAIR AND YOU PAINT MY TOES AND IT MUST BE BOTH OF US 

CAUSE GIRL YOU KNOW I LOVE YOU SO 
            
Submit corrections


        Couple Of Kids lessons Hard to play? Try these video lessons and learn fast Couple Of Kids lessons
        
↑ Back to top | Tablatures and chords for acoustic guitar and electric guitar, ukulele, drums are parodies/interpretations of the original songs. You may use it for private study, scholarship, research or language learning purposes only