Home » T » The Veronicas »

The Veronicas - Speechless Tabs

Artists:  A B C D E F G H I J K L M N O P Q R S T U V W X Y Z # 

Speechless Tabs

(ver. 1) Click to play this song!
The Veronicas
This song from the veronicas is in standard tuning, and is pretty much straight
forward (note: "s" is to slide). if theres any problems contact me at
cheers, enjoy!


Verses
e|---------------------5s6------------3--3s5----------5-----------------|
A|--1-------------------------8---------------------------3-------------|
D|------3------------------------------------------------------------3--|
G|--------------------------------5---------------3-------------5-------|
B|-----------1----------------------------------------------------------|
E|----------------------------------------------------------------------|

Feels like I have always known you 
And I swear I dreamt about you
All those endless nights I was alone
It's like I've spent forever searching
Now I know that it was worth it
With you it feels like I am finally home

Pre-chorus
        Bb                         C
Fallen head over heels, thought I knew how it feels
         Gm                                 C
But with you it’s like the first day of my life


Chorus
              F          Bb              Gm
you leave me speechless when you talk to me
C               F                Bb         Gm    
you leave me breathless the way you look at me
C             Dm           C                F
you manage to disarm me my soul is shining through
                  Gm    C
i cant help but surrender my everything to you



Verses
e|---------------------5s6------------3--3s5----------5----------------|
A|--1-------------------------8---------------------------3------------|
D|------3------------------------------------------------------------3-|
G|--------------------------------5---------------3-------------5------|
B|-----------1---------------------------------------------------------|
E|---------------------------------------------------------------------|

I thought I could resist you
I thought that I was strong
Somehow you are different from what I've known
I didn't see it coming
You took me by surprise and
You stole my heart before I could say no



Pre-chorus
        Bb                         C
Fallen head over heels, thought I knew how it feels
         Gm                                 C
But with you it’s like the first day of my life

Chorus
              F          Bb              Gm
you leave me speechless when you talk to me
C               F                Bb         Gm    
you leave me breathless the way you look at me
C             Dm           C                F
you manage to disarm me my soul is shining through
                  Gm    C
i cant help but surrender my everything to you



Bridge solo

e|-----------------------------------------------------------------|
A|-----------------------------------------------------------------|
D|-----------------------------------------------------------------|
G|-----------------------------------------------------------------|
B|---5h6-----8-8s10----10-10--8-8-8--6-6-6----6s13-----------------|
E|-----------------------------------------------------------------|

	       F
You leave me speechless
 		  	  Bb			Gm
The way you smile, the way you touched my face
C	       F
You leave me breathless
 		               Bb      Gm        C
There's something that you do, I can't explain
      D               C          F
I'd run a million miles just to hear you say my name
  Gm     C
Baby


Chorus
              F          Bb              Gm
you leave me speechless when you talk to me
C               F                Bb         Gm    
you leave me breathless the way you look at me
C             Dm           C                F
you manage to disarm me my soul is shining through
                  Gm    C
i cant help but surrender my everything to you

Finish on F
            
Submit corrections

↑ Back to top | Tablatures and chords for acoustic guitar and electric guitar, ukulele, drums are parodies/interpretations of the original songs. You may use it for private study, scholarship, research or language learning purposes only