Home » T » The Veils »

The Veils - Out From The Valley Into The Stars Tabs

Artists:  A B C D E F G H I J K L M N O P Q R S T U V W X Y Z # 

Out From The Valley Into The Stars Tabs

(ver. 1) Click to play this song!
The Veils
TUNNING: EADGBe

**the original track is tuned differently, so you might not want to play along**

CHORDS:
    F             
e|-------
B|-------
G|-------     
D|7-7-7--          
A|-8-8-8- ...   
E|-------
    A#                         **play these continuously**
e|-------------
B|-------------
G|-------------
D|12--12--12---
A|--13--13--13- ...
E|-------------

SOLO:
e|-----------------------------------------------------------------|
B|-----------------------------------------------------------------|
G|-----------------------------------------------------------------|
D|7---------10--7-------------7---------10--7-----------7----------|
A|-10-8-10-8-----10-8-10-8-----10-8-10-8-----10-8-10-8---10-8-10-8-|
E|------------------------10--------------------------10-----------|

        F
I'd had enough of the valley
                                 A#
So I took a walk down to Vincent Street
               F                                                **continue this pattern
Thinking there might be somebody                                   through the song**
                                     A#
Hanging round there that I'd like to meet

But I walked 'round there for hours
And there was no one that I could see
No one but three cut of flowers
Oh, singing 'oh, pretty darling, move on, pretty darling'

So I went back to the valley and there was still nothing there but weeds
And my girl long, tall Sally just said 'baby, it's so free with me'
So I sailed out to the island
Laid on my back staring at the stars
As they all danced high above me
Oh, singing 'Oh pretty darling. Go home, pretty darling'

So I sailed back from the island
now stood there now just skin and bones
hoping to say 'Hey, Sally come, on then. Let's get rid of gold"
But Sally'd gone and got married
So I sat up in that house alone
Looking back out across the valley
And singing 'oh pretty darling. Where'd you run, pretty darling?'
oh pretty darling
oh pretty darling            
Submit corrections

↑ Back to top | Tablatures and chords for acoustic guitar and electric guitar, ukulele, drums are parodies/interpretations of the original songs. You may use it for private study, scholarship, research or language learning purposes only