» » »

The Vaccines - Minimal Affection Tabs

Artists:  A B C D E F G H I J K L M N O P Q R S T U V W X Y Z # 

Minimal Affection Tabs

(ver. 1) Click to play this song!
The Vaccines
 Rating:
4.5/5 (20 votes)

 Minimal Affection  lessons Tabs too difficult? Try these video lessons and learn fast
 
                
Intro (synth/palm muted guitar?)

e|---------------------------------------------------------------------------|
B|------11--------9---------------11---------9-------------------------------|
G|--8----------11--------------8----------11---------------------------------|
D|-------------------------11------------------------------------------------|
A|---------------------------------------------------------------------------|
E|---------------------------------------------------------------------------|

e|---------------------------------------------------------------------------|
B|------11--------9---------------11---------9-------------------------------|
G|--8----------11--------------8----------11--------8----11--10--8-----------|
D|-------------------------11---------------------------------------11--8----|
A|---------------------------------------------------------------------------|
E|---------------------------------------------------------------------------|



Verse (palm muted):

e|---------------------------------------------------------------------------|
B|---------------------------------------------------------------------------|
G|---------------------------------------------------------------------------|
D|---------------------------------------------------------------------------|    x4
A|--6--6-6-6-6---------------------------------------------------------------|
E|-------------2-2--4---4-4-4-4-2-2--6---6-6-6-6-2-2--4---4-4-4-4-2-2--------|


"anyone, anyone, anyone, anyone..."
e|---------------------------------------------------------------------------|
B|--2-2/4--------4-4/7-------------7-7/9---------9-9/11----------11-11/16----|
G|---------------------------------------------------------------------------|
D|---------------------------------------------------------------------------|
A|---------------------------------------------------------------------------|
E|---------------------------------------------------------------------------|



Pre-chorus 1:

e|--2------------------------2------4----------------------------------------|
B|--4------------------------4------6----------------------------------------|
G|--4------------------------4------6----------------------------------------|
D|--4------------------------4------6----------------------------------------|
A|--2------------------------2------4----------------------------------------|
E|---------------------------------------------------------------------------|

or this:
e|---------------------------------------------------------------------------|
B|---------------------------------------------------------------------------|
G|---------------------------------------------------------------------------|
D|--8--------8---6-----------6------8--8--8----------------------------------|
A|---------------------------------------------------------------------------|
E|---------------------------------------------------------------------------|



Chorus 1:

e|---------------------------------------------9------------11---------------|
B|-----------------------------------------11-----------11-----------9-------|
G|----11~-----------------------------/11-----------10----------10-----------|
D|---------------------------------------------------------------------------|
A|---------------------------------------------------------------------------|
E|---------------------------------------------------------------------------|

e|---------------------------------------------11-----------13---------------|
B|-----------------------------------------12-----------12-----------14------|
G|----13~-----------------------------/13-----------13-----------13----------|
D|---------------------------------------------------------------------------|
A|---------------------------------------------------------------------------|
E|---------------------------------------------------------------------------|

e|---------------------------------------------9------------11---------------|
B|-----------------------------------------11-----------11-----------9-------|
G|----11~-----------------------------/11-----------10-----------10----------|
D|---------------------------------------------------------------------------|
A|---------------------------------------------------------------------------|
E|---------------------------------------------------------------------------|

e|---------------------------------------------13-------11-------------------|
B|-----------------------------------------12--------------------14----------|
G|----13~-----------------------------/13-----------13------13---------------|
D|---------------------------------------------------------------------------|
A|---------------------------------------------------------------------------|
E|---------------------------------------------------------------------------|


Bridge 1 (kinda same as the verse, but without muting it):

e|---------------------------------------------------------------------------|
B|---------------------------------------------------------------------------|
G|---------------------------------------------------------------------------|
D|---------------------------------------------------------------------------|
A|--/6----6-6-6--------------------------------------------------------------|
E|--------------2----/4---4-4-4-4-2----/6---6-6-6-6-2----/4---4-4-4-4-2------|



Verse 2 is the same as the first one, except now the "anyone" part has two guitars:

right-panned guitar:
e|---------------------------------------------------------------------------|
B|--2-2/4--------4-4/7-------------7-7/9---------9-9/11----------11-11/16----|
G|---------------------------------------------------------------------------|
D|---------------------------------------------------------------------------|
A|---------------------------------------------------------------------------|
E|---------------------------------------------------------------------------|

left-panned guitar:
e|--------11----------14--------------16--------------18---------------------|
B|--------11----------14--------------16--------------18---------------------|
G|---------------------------------------------------------------------------|
D|---------------------------------------------------------------------------|
A|---------------------------------------------------------------------------|
E|---------------------------------------------------------------------------|



Pre-chorus 2:

e|--6/11------------6/14-----------6/16-------18--18--18---------------------|
B|---------------------------------------------------------------------------|
G|---------------------------------------------------------------------------|
D|---------------------------------------------------------------------------|
A|---------------------------------------------------------------------------|
E|---------------------------------------------------------------------------|



Chorus 2 - first half same as the first chorus, and then it goes like this:

e|--14---------14----------18------16----------------------------------------|
B|------14---------14----------16--------------16-14-16----------------------|
G|----------15---------15----------------------------------------------------|
D|---------------------------------------------------------------------------|
A|---------------------------------------------------------------------------|
E|---------------------------------------------------------------------------|

e|--14--------14-----------14--13----14--13--14--13\11-----------------------|
B|------16---------16-----------------------------------14-------------------|
G|---------16----------16----------------------------------------------------|
D|---------------------------------------------------------------------------|
A|---------------------------------------------------------------------------|
E|---------------------------------------------------------------------------|

e|--14---------14----------18------16----------------------------------------|
B|------14---------14----------16--------------16-14-16----------------------|
G|----------15---------15----------------------------------------------------|
D|---------------------------------------------------------------------------|
A|---------------------------------------------------------------------------|
E|---------------------------------------------------------------------------|

e|--14--------14-----------14--13----14--13--14--13\11-----------------------|
B|------16---------16-----------------------------------14-------------------|
G|---------16----------16----------------------------------------------------|
D|---------------------------------------------------------------------------|
A|---------------------------------------------------------------------------|
E|---------------------------------------------------------------------------|



Bridge:

e|--/18----16---------/16----14---------/14----13----------13-----11-----9---|
B|---------------------------------------------------------------------------|
G|---------------------------------------------------------------------------|
D|---------------------------------------------------------------------------|
A|---------------------------------------------------------------------------|
E|---------------------------------------------------------------------------|

e|--/18----16---------/16----14-----------18-----21-----18------16-----------|
B|---------------------------------------------------------------------------|
G|---------------------------------------------------------------------------|
D|---------------------------------------------------------------------------|
A|---------------------------------------------------------------------------|
E|---------------------------------------------------------------------------|            
Submit corrections


        Minimal Affection  lessons Hard to play? Try these video lessons and learn fast Minimal Affection  lessons
        
↑ Back to top | Tablatures and chords for acoustic guitar and electric guitar, ukulele, drums are parodies/interpretations of the original songs. You may use it for private study, scholarship, research or language learning purposes only