Home » T » The Vaccines »

The Vaccines - 2020 Tabs

Artists:  A B C D E F G H I J K L M N O P Q R S T U V W X Y Z # 

2020 Tabs

(ver. 1) Click to play this song!
The Vaccines
 Rating:
3.9/5 (22 votes)
                Tuning: Standard

Intro

e|----------------------------------------------------------------------------|
B|---------------------------------13-13--------------------------------13-13-|
G|--14-14-14-12----14-14-14-12-----12-12--14-14-14-12----14-14-14-12----12-12-|
D|--------------14-------------14---------------------14-------------14-------|
A|----------------------------------------------------------------------------|
E|----------------------------------------------------------------------------|

Verse/Pre-chorus
                               Pre Chorus - Played at the end of last bar in verse 1
  1  +  2  +  3  +  4  +
e|-------------------x----|    |---------------------------------|
B|-------------------13---|    |---------------------------------|
G|-------------------12---|    |---------------------------------|
D|-------------------x----|    |-3-3-3-3-3-3-3-3-5-5-5-5-5-5-5-5-|
A|-------------------x----|    |-3-3-3-3-3-3-3-3-5-5-5-5-5-5-5-5-|
E|-------------------x----|    |-1-1-1-1-1-1-1-1-3-3-3-3-3-3-3-3-|
                    TRILL
      (play notes as quick as possible) 


Chorus

Guitar 1
e|-------------------------------------------------------------------------------------------------|
B|-------------------------------------------------------------------------------------------------|
G|-------------------------------------------------------------------------------------------------|
D|-10-10-10-10-10-10-10-10-10-10-10-10-10-10-10-10-10-10-10-10-10-10-10-10-10-10-10-10-10-10-10-10-|
A|-10-10-10-10-10-10-10-10-10-10-10-10-10-10-10-10-10-10-10-10-10-10-10-10-10-10-10-10-10-10-10-10-|
E|-8--8--8--8--8--8--8--8--8--8--8--8--8--8--8--8--8--8--8--8--8--8--8--8--8--8--8--8--8--8--8--8--|

Guitar 2
e|--------------------------------|
B|--------------------------------|
G|-14-14-14-12-----14-14-14-12----|
D|-------------14--------------14-|
A|--------------------------------|
E|--------------------------------|

Guitar 1
e|-------------------------------------------------------------------------------------------------|
B|-------------------------------------------------------------------------------------------------|
G|-------------------------------------------------------------------------------------------------|
D|-10-10-10-10-10-10-10-10-10-10-10-10-10-10-10-10-10-10-10-10-10-10-10-10-10-10-10-10-10-10-10-10-|
A|-10-10-10-10-10-10-10-10-10-10-10-10-10-10-10-10-10-10-10-10-10-10-10-10-10-10-10-10-10-10-10-10-|
E|-8--8--8--8--8--8--8--8--8--8--8--8--8--8--8--8--8--8--8--8--8--8--8--8--8--8--8--8--8--8--8--8--|

Guitar 2
e|--------------------------------|
B|--------------------------------|
G|-14-14-14-12-----14-14-14-12----|
D|-------------14--------------14-|
A|--------------------------------|
E|--------------------------------|

Guitar 1
e|-----------------------------------------------------------------------------------------|
B|-----------------------------------------------------------------------------------------|
G|-----------------------------------------------------------------------------------------|
D|-10-10-10-10-10-10-10-10-3-3-3-3-3-3-3-3-10-10-10-10-10-10-10-10-10-10-10-10-10-10-10-10-|
A|-10-10-10-10-10-10-10-10-3-3-3-3-3-3-3-3-10-10-10-10-10-10-10-10-10-10-10-10-10-10-10-10-|
E|-8--8--8--8--8--8--8--8--1-1-1-1-1-1-1-1-8--8--8--8--8--8--8--8--8--8--8--8--8--8--8--8--|

Guitar 2
e|--------------------------------|
B|--------------------------------|
G|-14-14-14-12-----14-14-14-12----|
D|-------------14--------------14-|
A|--------------------------------|
E|--------------------------------|

Guitar 1
e|---------------------------------------------------------------------------------|
B|---------------------------------------------------------------------------------|
G|---------------------------------------------------------------------------------|
D|-7-7-7-7-7-7-7-7-3-3-3-3-3-3-3-3-10-10-10-10-10-10-10-10-10-10-10-10-10-10-10-10-|
A|-7-7-7-7-7-7-7-7-3-3-3-3-3-3-3-3-10-10-10-10-10-10-10-10-10-10-10-10-10-10-10-10-|
E|-5-5-5-5-5-5-5-5-1-1-1-1-1-1-1-1-8--8--8--8--8--8--8--8--8--8--8--8--8--8--8--8--|

Guitar 2
e|--------------------------------|
B|--------------------------------|
G|-14-14-14-12-----14-14-14-12----|
D|-------------14--------------14-|
A|--------------------------------|
E|--------------------------------|



e|---------------------------------------------------------------------------|
B|---------------------------------------------------------------------------|
G|---------------------------------------------------------------------------|
D|-3-3-3-3-3-3-3-3-3-3-3-3-3-3-3-3-5-5-5-5-5-5-5-5-5-5-5-5-5-5-5-5-----------|
A|-3-3-3-3-3-3-3-3-3-3-3-3-3-3-3-3-5-5-5-5-5-5-5-5-5-5-5-5-5-5-5-5-----------|
E|-1-1-1-1-1-1-1-1-1-1-1-1-1-1-1-1-3-3-3-3-3-3-3-3-3-3-3-3-3-3-3-3-----------|

e|---------------------------------------------------------------------------|
B|-------------------------------13-13---------------------------------------|
G|-14-14-14-12----14-14-14-12----12-12---------------------------------------|
D|-------------14-------------14---------------------------------------------|
A|---------------------------------------------------------------------------|
E|---------------------------------------------------------------------------|



Verse

                               Pre Chorus - Played at the end of last bar in verse 1
  1  +  2  +  3  +  4  +
e|-------------------x----|    |---------------------------------|
B|-------------------13---|    |---------------------------------|
G|-------------------12---|    |---------------------------------|
D|-------------------x----|    |-3-3-3-3-3-3-3-3-5-5-5-5-5-5-5-5-|
A|-------------------x----|    |-3-3-3-3-3-3-3-3-5-5-5-5-5-5-5-5-|
E|-------------------x----|    |-1-1-1-1-1-1-1-1-3-3-3-3-3-3-3-3-|



Chorus

Guitar 1
e|-------------------------------------------------------------------------------------------------|
B|-------------------------------------------------------------------------------------------------|
G|-------------------------------------------------------------------------------------------------|
D|-10-10-10-10-10-10-10-10-10-10-10-10-10-10-10-10-10-10-10-10-10-10-10-10-10-10-10-10-10-10-10-10-|
A|-10-10-10-10-10-10-10-10-10-10-10-10-10-10-10-10-10-10-10-10-10-10-10-10-10-10-10-10-10-10-10-10-|
E|-8--8--8--8--8--8--8--8--8--8--8--8--8--8--8--8--8--8--8--8--8--8--8--8--8--8--8--8--8--8--8--8--|

Guitar 2
e|--------------------------------|
B|--------------------------------|
G|-14-14-14-12-----14-14-14-12----|
D|-------------14--------------14-|
A|--------------------------------|
E|--------------------------------|

Guitar 1
e|-------------------------------------------------------------------------------------------------|
B|-------------------------------------------------------------------------------------------------|
G|-------------------------------------------------------------------------------------------------|
D|-10-10-10-10-10-10-10-10-10-10-10-10-10-10-10-10-10-10-10-10-10-10-10-10-10-10-10-10-10-10-10-10-|
A|-10-10-10-10-10-10-10-10-10-10-10-10-10-10-10-10-10-10-10-10-10-10-10-10-10-10-10-10-10-10-10-10-|
E|-8--8--8--8--8--8--8--8--8--8--8--8--8--8--8--8--8--8--8--8--8--8--8--8--8--8--8--8--8--8--8--8--|

Guitar 2
e|--------------------------------|
B|--------------------------------|
G|-14-14-14-12-----14-14-14-12----|
D|-------------14--------------14-|
A|--------------------------------|
E|--------------------------------|

Guitar 1
e|-----------------------------------------------------------------------------------------|
B|-----------------------------------------------------------------------------------------|
G|-----------------------------------------------------------------------------------------|
D|-10-10-10-10-10-10-10-10-3-3-3-3-3-3-3-3-10-10-10-10-10-10-10-10-10-10-10-10-10-10-10-10-|
A|-10-10-10-10-10-10-10-10-3-3-3-3-3-3-3-3-10-10-10-10-10-10-10-10-10-10-10-10-10-10-10-10-|
E|-8--8--8--8--8--8--8--8--1-1-1-1-1-1-1-1-8--8--8--8--8--8--8--8--8--8--8--8--8--8--8--8--|

Guitar 2
e|--------------------------------|
B|--------------------------------|
G|-14-14-14-12-----14-14-14-12----|
D|-------------14--------------14-|
A|--------------------------------|
E|--------------------------------|

Guitar 1
e|---------------------------------------------------------------------------------|
B|---------------------------------------------------------------------------------|
G|---------------------------------------------------------------------------------|
D|-7-7-7-7-7-7-7-7-3-3-3-3-3-3-3-3-10-10-10-10-10-10-10-10-10-10-10-10-10-10-10-10-|
A|-7-7-7-7-7-7-7-7-3-3-3-3-3-3-3-3-10-10-10-10-10-10-10-10-10-10-10-10-10-10-10-10-|
E|-5-5-5-5-5-5-5-5-1-1-1-1-1-1-1-1-8--8--8--8--8--8--8--8--8--8--8--8--8--8--8--8--|

Guitar 2
e|--------------------------------|
B|--------------------------------|
G|-14-14-14-12-----14-14-14-12----|
D|-------------14--------------14-|
A|--------------------------------|
E|--------------------------------|



e|---------------------------------------------------------------------------|
B|---------------------------------------------------------------------------|
G|---------------------------------------------------------------------------|
D|-3-3-3-3-3-3-3-3-3-3-3-3-3-3-3-3-5-5-5-5-5-5-5-5-5-5-5-5-5-5-5-5-----------|
A|-3-3-3-3-3-3-3-3-3-3-3-3-3-3-3-3-5-5-5-5-5-5-5-5-5-5-5-5-5-5-5-5-----------|
E|-1-1-1-1-1-1-1-1-1-1-1-1-1-1-1-1-3-3-3-3-3-3-3-3-3-3-3-3-3-3-3-3-----------|




Bridge
e|---------------------------------------------------------------------------|
B|---------------------------------------------------------------------------|
G|----------17~------14b17------14/17----------------------------------------|
D|-10~-----------------------------------------------------------------------|
A|---------------------------------------------------------------------------|
E|---------------------------------------------------------------------------|

e|---------------------------------------------------------------------------|
B|-------------------------------13-13--------------------------------13-13--|
G|-14-14-14-12----14-14-14-12----12-12--14-14-14-12----14-14-14-12----12-12--|
D|-------------14-------------14--------------------14-------------14--------|
A|---------------------------------------------------------------------------|
E|---------------------------------------------------------------------------|



Verse
e|------------------------------------------------------------------------|
B|------------------------------------------------------------------------|
G|------------------------------------------------------------------------|
D|---------------------------------------3-3-3-3-3-3-3-3-5-5-5-5-5-5-5-5--|
A|---------------------------------------3-3-3-3-3-3-3-3-5-5-5-5-5-5-5-5--|
E|---------------------------------------1-1-1-1-1-1-1-1-3-3-3-3-3-3-3-3--|




Chorus
Guitar 1
e|-------------------------------------------------------------------------------------------------|
B|-------------------------------------------------------------------------------------------------|
G|-------------------------------------------------------------------------------------------------|
D|-10-10-10-10-10-10-10-10-10-10-10-10-10-10-10-10-10-10-10-10-10-10-10-10-10-10-10-10-10-10-10-10-|
A|-10-10-10-10-10-10-10-10-10-10-10-10-10-10-10-10-10-10-10-10-10-10-10-10-10-10-10-10-10-10-10-10-|
E|-8--8--8--8--8--8--8--8--8--8--8--8--8--8--8--8--8--8--8--8--8--8--8--8--8--8--8--8--8--8--8--8--|

Guitar 2
e|--------------------------------|
B|--------------------------------|
G|-14-14-14-12-----14-14-14-12----|
D|-------------14--------------14-|
A|--------------------------------|
E|--------------------------------|

Guitar 1
e|-------------------------------------------------------------------------------------------------|
B|-------------------------------------------------------------------------------------------------|
G|-------------------------------------------------------------------------------------------------|
D|-10-10-10-10-10-10-10-10-10-10-10-10-10-10-10-10-10-10-10-10-10-10-10-10-10-10-10-10-10-10-10-10-|
A|-10-10-10-10-10-10-10-10-10-10-10-10-10-10-10-10-10-10-10-10-10-10-10-10-10-10-10-10-10-10-10-10-|
E|-8--8--8--8--8--8--8--8--8--8--8--8--8--8--8--8--8--8--8--8--8--8--8--8--8--8--8--8--8--8--8--8--|

Guitar 2
e|--------------------------------|
B|--------------------------------|
G|-14-14-14-12-----14-14-14-12----|
D|-------------14--------------14-|
A|--------------------------------|
E|--------------------------------|

Guitar 1
e|-----------------------------------------------------------------------------------------|
B|-----------------------------------------------------------------------------------------|
G|-----------------------------------------------------------------------------------------|
D|-10-10-10-10-10-10-10-10-3-3-3-3-3-3-3-3-10-10-10-10-10-10-10-10-10-10-10-10-10-10-10-10-|
A|-10-10-10-10-10-10-10-10-3-3-3-3-3-3-3-3-10-10-10-10-10-10-10-10-10-10-10-10-10-10-10-10-|
E|-8--8--8--8--8--8--8--8--1-1-1-1-1-1-1-1-8--8--8--8--8--8--8--8--8--8--8--8--8--8--8--8--|

Guitar 2
e|--------------------------------|
B|--------------------------------|
G|-14-14-14-12-----14-14-14-12----|
D|-------------14--------------14-|
A|--------------------------------|
E|--------------------------------|

Guitar 1
e|---------------------------------------------------------------------------------|
B|---------------------------------------------------------------------------------|
G|---------------------------------------------------------------------------------|
D|-7-7-7-7-7-7-7-7-3-3-3-3-3-3-3-3-10-10-10-10-10-10-10-10-10-10-10-10-10-10-10-10-|
A|-7-7-7-7-7-7-7-7-3-3-3-3-3-3-3-3-10-10-10-10-10-10-10-10-10-10-10-10-10-10-10-10-|
E|-5-5-5-5-5-5-5-5-1-1-1-1-1-1-1-1-8--8--8--8--8--8--8--8--8--8--8--8--8--8--8--8--|

Guitar 2
e|--------------------------------|
B|--------------------------------|
G|-14-14-14-12-----14-14-14-12----|
D|-------------14--------------14-|
A|--------------------------------|
E|--------------------------------|

Guitar 1
e|---------------------------------------------------------------------------------|
B|---------------------------------------------------------------------------------|
G|---------------------------------------------------------------------------------|
D|-7-7-7-7-7-7-7-7-3-3-3-3-3-3-3-3-10-10-10-10-10-10-10-10-10-10-10-10-10-10-10-10-|
A|-7-7-7-7-7-7-7-7-3-3-3-3-3-3-3-3-10-10-10-10-10-10-10-10-10-10-10-10-10-10-10-10-|
E|-5-5-5-5-5-5-5-5-1-1-1-1-1-1-1-1-8--8--8--8--8--8--8--8--8--8--8--8--8--8--8--8--|

Guitar 2
e|--------------------------------|
B|--------------------------------|
G|-14-14-14-12-----14-14-14-12----|
D|-------------14--------------14-|
A|--------------------------------|
E|--------------------------------|



e|---------------------------------------------------------------------------|
B|---------------------------------------------------------------------------|
G|---------------------------------------------------------------------------|
D|-3-3-3-3-3-3-3-3-3-3-3-3-3-3-3-3-5-5-5-5-5-5-5-5-5-5-5-5-5-5-5-5-----------|
A|-3-3-3-3-3-3-3-3-3-3-3-3-3-3-3-3-5-5-5-5-5-5-5-5-5-5-5-5-5-5-5-5-----------|
E|-1-1-1-1-1-1-1-1-1-1-1-1-1-1-1-1-3-3-3-3-3-3-3-3-3-3-3-3-3-3-3-3-----------|            
Submit corrections

↑ Back to top | Tablatures and chords for acoustic guitar and electric guitar, ukulele, drums are parodies/interpretations of the original songs. You may use it for private study, scholarship, research or language learning purposes only