Home » T » Thethe »

Thethe - Phantom Walls Tabs

Artists:  A B C D E F G H I J K L M N O P Q R S T U V W X Y Z # 

Phantom Walls Tabs

(ver. 1) Click to play this song!
Thethe
 Rating:
4/5 (4 votes)
                tuning: standard

*=palm mute

Intro/Verse:
|--------------------------------------------------------------------
|--------------------------------------------------------------------
|------0------0------0------0------0---------------------------------
|----2------2------2------2------2------0-2---0-2---0-2---0-2--0-2---
|--0------0------0------0------0-------------------------------------
|-------------------------------------0-----0-----0-----0-----0------

|-------------------------------------------------------------------|
|-------------------------------------------------------------------|
|--------------------------------------0-----0-----0------0------0--| x2
|----0-2---0-2---0-2---0-2---0-2-----0-----0-----0------0------0----|
|-------------------------------------------------------------------|
|--2-----2-----2-----2-----2------1------1-----1------1-----1-------|

|--------------------------------------------------------------------
|--------------------------------------------------------------------
|------0------0------0------0------0---------------------------------
|----2------2------2------2------2------0-2---0-2---0-2---0-2--0-2---
|--0------0------0------0------0-------------------------------------
|-------------------------------------0-----0-----0-----0-----0------

|-------------------------------------------------------------------|
|-------------------------------------------------------------------|
|-------------------------------------------------------------------| 
|----0-2---0-2---0-2---0-2---0-2-----0-1---0-1---0-1----0-1---0-1---|
|-------------------------------------------------------------------|
|--2-----2-----2-----2-----2------1------1-----1------1-----1-------|

Chorus:
|--0--0--0-0--0--0-0--0--0-0-0-0--1--1--1-1--1--1-1--1--1-1-1-1--
|--1--1--1-1--1--1-1--1--1-1-1-1--1--1--1-1--1--1-1--1--1-1-1-1--
|--2--2--2-2--2--2-2--2--2-2-2-2--2--2--2-2--2--2-2--2--2-2-2-2--
|--2--2--2-2--2--2-2--2--2-2-2-2--3--3--3-3--3--3-3--3--3-3-3-3--
|--0--0--0-0--0--0-0--0--0-0-0-0--3--3--3-3--3--3-3--3--3-3-3-3--
|--0--0--0-0--0--0-0--0--0-0-0-0--1--1--1-1--1--1-1--1--1-1-1-1--
      *       *       *              *       *       *

|--0--0--0-0--0--0-0--0--0-0-0-0--0--0--0-0--0--0-0--0--0-0-0-0--|
|--0--0--0-0--0--0-0--0--0-0-0-0--1--1--1-1--1--1-1--1--1-1-1-1--|
|--1--1--1-1--1--1-1--1--1-1-1-1--2--2--2-2--2--2-2--2--2-2-2-2--|
|--2--2--2-2--2--2-2--2--2-2-2-2--2--2--2-2--2--2-2--2--2-2-2-2--|
|--2--2--2-2--2--2-2--2--2-2-2-2--0--0--0-0--0--0-0--0--0-0-0-0--|
|--0--0--0-0--0--0-0--0--0-0-0-0--0--0--0-0--0--0-0--0--0-0-0-0--|
      *       *       *              *       *       *

|--0--0--0--0-0-0-0--3--3--3--3-3-3-3--1--1--1--1-1-1-1--0--0--0--
|--1--1--1--1-1-1-1--0--0--0--0-0-0-0--1--1--1--1-1-1-1--0--0--0--
|--2--2--2--2-2-2-2--0--0--0--0-0-0-0--2--2--2--2-2-2-2--1--1--1--
|--2--2--2--2-2-2-2--0--0--0--0-0-0-0--3--3--3--3-3-3-3--2--2--2--
|--0--0--0--0-0-0-0--2--2--2--2-2-2-2--3--3--3--3-3-3-3--2--2--2--
|--0--0--0--0-0-0-0--3--3--3--3-3-3-3--1--1--1--1-1-1-1--0--0--0--
      *                 *                 *                 *

|--0-0-0-0--0--0--0--0-0-0-0--3--3--3--3-3-3-3--1--1--1--1-1-1-1--0--|
|--0-0-0-0--1--1--1--1-1-1-1--0--0--0--0-0-0-0--1--1--1--1-1-1-1--0--|
|--1-1-1-1--2--2--2--2-2-2-2--0--0--0--0-0-0-0--2--2--2--2-2-2-2--1--|
|--2-2-2-2--2--2--2--2-2-2-2--0--0--0--0-0-0-0--3--3--3--3-3-3-3--2--|
|--2-2-2-2--0--0--0--0-0-0-0--2--2--2--2-2-2-2--3--3--3--3-3-3-3--2--|
|--0-0-0-0--0--0--0--0-0-0-0--3--3--3--3-3-3-3--1--1--1--1-1-1-1--0--|
               *                 *                 *

Verse 2:
|--------------------------------------------------------------------
|--------------------------------------------------------------------
|------0------0------0------0------0---------------------------------
|----2------2------2------2------2------0-2---0-2---0-2---0-2--0-2---
|--0------0------0------0------0-------------------------------------
|-------------------------------------0-----0-----0-----0-----0------

|-------------------------------------------------------------------
|-------------------------------------------------------------------
|--------------------------------------0-----0-----0------0------0-- 
|----0-2---0-2---0-2---0-2---0-2-----0-----0-----0------0------0----
|-------------------------------------------------------------------
|--2-----2-----2-----2-----2------1------1-----1------1-----1-------

|--------------------------------------------------------------------
|--------------------------------------------------------------------
|------0------0------0------0------0---------------------------------
|----2------2------2------2------2------0-2---0-2---0-2---0-2--0-2---
|--0------0------0------0------0-------------------------------------
|-------------------------------------0-----0-----0-----0-----0------

|-----------------------------------------------------------------|
|-----------------------------------------------------------------|
|-----------------------------------------------------------------| 
|----0-2---0-2---0-2---0-2---0-2-----0-1---0-1---0-1---1---1------|
|-----------------------------------------------------------------|
|--2-----2-----2-----2-----2------1------1-----1-----1---1---1----|

Chorus:
|--0--0--0-0--0--0-0--0--0-0-0-0--1--1--1-1--1--1-1--1--1-1-1-1--
|--1--1--1-1--1--1-1--1--1-1-1-1--1--1--1-1--1--1-1--1--1-1-1-1--
|--2--2--2-2--2--2-2--2--2-2-2-2--2--2--2-2--2--2-2--2--2-2-2-2--
|--2--2--2-2--2--2-2--2--2-2-2-2--3--3--3-3--3--3-3--3--3-3-3-3--
|--0--0--0-0--0--0-0--0--0-0-0-0--3--3--3-3--3--3-3--3--3-3-3-3--
|--0--0--0-0--0--0-0--0--0-0-0-0--1--1--1-1--1--1-1--1--1-1-1-1--
      *       *       *              *       *       *

|--0--0--0-0--0--0-0--0--0-0-0-0--0--0--0-0--0--0-0--0--0-0-0-0--|
|--0--0--0-0--0--0-0--0--0-0-0-0--1--1--1-1--1--1-1--1--1-1-1-1--|
|--1--1--1-1--1--1-1--1--1-1-1-1--2--2--2-2--2--2-2--2--2-2-2-2--|
|--2--2--2-2--2--2-2--2--2-2-2-2--2--2--2-2--2--2-2--2--2-2-2-2--|
|--2--2--2-2--2--2-2--2--2-2-2-2--0--0--0-0--0--0-0--0--0-0-0-0--|
|--0--0--0-0--0--0-0--0--0-0-0-0--0--0--0-0--0--0-0--0--0-0-0-0--|
      *       *       *              *       *       *
Outro:
|--0--0--0--0-0-0-0--3--3--3--3-3-3-3--1--1--1--1-1-1-1--0--0--0--
|--1--1--1--1-1-1-1--0--0--0--0-0-0-0--1--1--1--1-1-1-1--0--0--0--
|--2--2--2--2-2-2-2--0--0--0--0-0-0-0--2--2--2--2-2-2-2--1--1--1--
|--2--2--2--2-2-2-2--0--0--0--0-0-0-0--3--3--3--3-3-3-3--2--2--2--
|--0--0--0--0-0-0-0--2--2--2--2-2-2-2--3--3--3--3-3-3-3--2--2--2--
|--0--0--0--0-0-0-0--3--3--3--3-3-3-3--1--1--1--1-1-1-1--0--0--0--
      *                 *                 *                 *

|--0-0-0-0--|
|--0-0-0-0--|
|--1-1-1-1--|
|--2-2-2-2--|
|--2-2-2-2--|
|--0-0-0-0--|
            
Submit corrections

↑ Back to top | Tablatures and chords for acoustic guitar and electric guitar, ukulele, drums are parodies/interpretations of the original songs. You may use it for private study, scholarship, research or language learning purposes only