» » »

The Temper Trap - Drum Song Tabs

Artists:  A B C D E F G H I J K L M N O P Q R S T U V W X Y Z # 

Drum Song Tabs

(ver. 2) Click to play this song!
The Temper Trap
 Rating:
3.8/5 (5 votes)

 Drum Song lessons Tabs too difficult? Try these video lessons and learn fast
 
                -------------------------------------------------------------------------------
                        Drum Song - The Temper Trap
-------------------------------------------------------------------------------

Tuning:standard

These are all the sections of the song written down they're in order but there are parts 
the song
where sections are repeated but everything that you need for the guitar is here, hope 
helps anyone
who wanted this tab and I'm open to any feedback, thanks.


e|--------------------------------|
B|--------12-12-12-8-8-8-10-10-10-|
G|--9-9-9-------------------------| Repeat as
D|--------------------------------| many times as
A|--------------------------------| neccessary then at the end of each repeat
E|--------------------------------| play the below.

Palm mute this except for the notes on the 5th fret

e|--------------------------------|
B|--14-13-12-11-10-9-8-7-6-5-5-55-|
G|--------------------------------|
D|--------------------------------|
A|--------------------------------|
E|--------------------------------|


e|-3-3333333-3-3333333--|
B|-5-5555555-5-5555555--|
G|-4-4444444-4-4444444--|
D|-5-5555555-5-5555555--|
A|-3-3333333-3-3333333--|
E|-3-3333333-3-3333333--|

e|-2-2222222-2-2222222-------------------------------------------------------------------|
B|-3-3333333-3-3333333-------------------------------------------------------------------|
G|-4-4444444-4-4444444-------------------------------------------------------------------|
D|-4-4444444-4-4444444-------------------------------------------------------------------|
A|-2-2222222-2-2222222-------------------------------------------------------------------|
E|-2-2222222-2-2222222-------------------------------------------------------------------|


e|---------------------12+------12+-----------------------------------+12--|
B|-7b8-8b9-7b8-8b9--5--------5--------10-10-10-10-10-10-8-8-8-7-7-7-5------|
G|-------------------------------------------------------------------------|
D|-------------------------------------------------------------------------|
A|-------------------------------------------------------------------------|
E|-------------------------------------------------------------------------|


e|-----------------------------------------------------------------------|
B|-10-10-10-10-10-10-8-8-8-7-7-7-5-----5---------------------------------|
G|-----------------------------------------------------------------------|
D|-----------------------------------------------------------------------|
A|-----------------------------------------------------------------------|
E|-----------------------------------------------------------------------|

tremelo pick this section

e|-10---9---7------------|
B|-----------------------|
G|-----------------------|
D|-----------------------|
A|-----------------------|
E|-----------------------|

tremelo pick this section

e|-/17-17-17-15-15-14-14-14----------------------------------------------|
B|--------------------------17-17-17-------------------------------------|
G|-----------------------------------------------------------------------|
D|-----------------------------------------------------------------------|
A|-----------------------------------------------------------------------|
E|-----------------------------------------------------------------------|

tremelo pick this section and finsih on a single note on the 5th and hold.
e|----------5------------------------------------------------------------|
B|--5---8-------7---5------------------5---------------------------------|
G|-----------------------------------------------------------------------|
D|-----------------------------------------------------------------------|
A|-----------------------------------------------------------------------|
E|-----------------------------------------------------------------------|

| /  slide up
| \  slide down
| h  hammer-on
| p  pull-off
| ~  vibrato
| +  harmonic
| x  Mute note
===============================================================================
            
Submit corrections


        Drum Song lessons Hard to play? Try these video lessons and learn fast Drum Song lessons
        
↑ Back to top | Tablatures and chords for acoustic guitar and electric guitar, ukulele, drums are parodies/interpretations of the original songs. You may use it for private study, scholarship, research or language learning purposes only