» » »

The Tellers - More Tabs

Artists:  A B C D E F G H I J K L M N O P Q R S T U V W X Y Z # 

More Tabs

(ver. 1) Click to play this song!
The Tellers
 Rating:
4.6/5 (10 votes)

 More lessons Tabs too difficult? Try these video lessons and learn fast
 
                The Tellers - More



Intro: E  C#m  A  B

e|---------------------------------|
B|---------------------------------|
G|---------------------------------|
D|-----------------------------2-4-|
A|-------6-4-4-4-6-0-0-0-4-2-4-----|
E|-0-0-0---------------------------|


E                               C#m
Well, I guess I'm a f**ker cause I saw how
          A                B
Well, You looked at me the other night.
E                         C#m    A             B
Now, landscape is passing slowly infront of my headlights.
E      C#m           A    B
Oh hey no, you don't need me, no x 2


C#m       G#m           C#m              G#m 
More, say more, give me more and give me more,
             C#m 
You know I'd die for you,
G#m            A
Little whore.

E              C#m  A              B
One day you'll see I'll probably become me.
E      C#m           A    B
Oh hey no, you don't need me, no x 2


C#m       G#m           C#m              G#m 
More, say more, give me more and give me more,
             C#m 
You know I'd die for you,
G#m            A
Little whore.

E
Live in a bubble,
C#m
Slip on the curls,
A                  B
I will never understand girls.

E      C#m           A    B
Oh hey no, you don't need me, no x 3

C#m       G#m           C#m              G#m 
More, say more, give me more and give me more,
             C#m 
You know I'd die for you,
G#m            A
Little whore.



e|------------------------------------------------------------------------|
B|------------------------------------------------------------------------|
G|-----4-1-1-1-2-1-2-1-2-1-2-6-6-6-4-1-----4-1-1-1-2-1-2-1-2-1-2-6-6-6-4/-|
D|-2-2---------------------------------2-2--------------------------------|
A|------------------------------------------------------------------------|
E|------------------------------------------------------------------------|

e|-------------------------------------------------------------|
B|----9-----9-----9-7-9-7------9-----9---------------7-9-7-----|
G|-/9---9-8---8-9---------9--9---9-8---8-9-8-9-8-9-9-------9-9-|
D|-------------------------------------------------------------|
A|-------------------------------------------------------------|
E|-------------------------------------------------------------|        
            
Submit corrections


        More lessons Hard to play? Try these video lessons and learn fast More lessons
        
↑ Back to top | Tablatures and chords for acoustic guitar and electric guitar, ukulele, drums are parodies/interpretations of the original songs. You may use it for private study, scholarship, research or language learning purposes only