Home » T » The Tears »

The Tears - Autograph Tabs

Artists:  A B C D E F G H I J K L M N O P Q R S T U V W X Y Z # 

Autograph Tabs

(ver. 1) Click to play this song!
The Tears
This is pretty simple really, although certainly not entirely accurate


e----------------------------------0-------------------|
b------0 3 0----0 3 0-----------3-----3--------3-2-----|
g---------------------2----0h2---------------2---------|
d-------------2---------0------------------0-----------|
a---2---------0--------------------------0-------------|
E---0--------------------------------------------------|

e---------------------------------0--------------------------|
b--- 3~- 5 7--5--3-5-7--5/3-2-2-3---3-2---2--5-7-8-7-5-7-8-7-|
g---------------------------------------2--------------------|
d------------------------------------------------------------|
a------------------------------------------------------------|
E------------------------------------------------------------|

e---------------5----------------------------------------|
b-5-3-3-5-7-5-3------------------------------------------|
g--------------------------------------------------------|
d--------------------------------------------------------|
a--------------------------------------------------------|
E--------------------------------------------------------|

There are variations that I can't be bothered to work out. I'm sure the more proficient 
out there could post them. Some proper Tears tabs will be greatly appreciated.
            
Submit corrections

↑ Back to top | Tablatures and chords for acoustic guitar and electric guitar, ukulele, drums are parodies/interpretations of the original songs. You may use it for private study, scholarship, research or language learning purposes only