Home » T » The Sunshine Underground »

The Sunshine Underground - Put You In Your Place Bass

Artists:  A B C D E F G H I J K L M N O P Q R S T U V W X Y Z # 

Put You In Your Place Bass
Version #1
The Sunshine Underground


Copy URL
-------------------------------------------------------------------------------
-------------------------------------------------------------------------------
 
  0:17
G|---------------------|
D|-------5--------5----|
A|--57777-77777777-77--|
E|---------------------| x3

       tryin' to stop...     
G|---------------------|
D|-------5-------------|
A|--57777-77777777-----|
E|---------------------|

  0:28
G|------------------------------------------------------------|
D|------999977775555----777755554444----5555----5555----------|
A|--7777------------5555------------3333----3333-----7-7-7-7--|
E|------------------------------------------------------------| x2

  0:45
G|------------------|
D|------------------|
A|--77777777777777--|
E|------------------| x11

  1:12
G|------------------------------------------------------------|
D|------999977775555----777755554444----5555----5555----------|
A|--7777------------5555------------3333----3333-----7-7-7-7--|
E|------------------------------------------------------------| x2

  1:28
G|---------------------|
D|-------5--------5----|
A|--57777-77777777-77--|
E|---------------------| x8

  1:46
G|------------------------------------------------------------|
D|------999977775555----777755554444----5555----5555----------|
A|--7777------------5555------------3333----3333-----7-7-7-7--|
E|------------------------------------------------------------| x2

G|------------------------------------------------------------|
D|------999977775555----777755554444----5555----5555----------|
A|--7777------------5555------------3333----3333-----7\-------|
E|------------------------------------------------------------|

G|------------------------------------------------------------|
D|------999977775555----777755554444----5555----5555----------|
A|--7777------------5555------------3333----3333-----7-7-7-7--|
E|------------------------------------------------------------|

  2:39
G|---------------------|
D|-------5--------5----|
A|--57777-77777777-77--|
E|---------------------| x15  (you can listen to this and play around with it a bit)

  3:11
G|---------------------|
D|---------------------|
A|--7\------------567--|
E|---------------------|

I know its not perfect, it's only my second tab but i think its right
 enough, if you've got any improvements please let me know at 

| /  slide up
| \  slide down
| h  hammer-on
| p  pull-off
| ~  vibrato
| +  harmonic
| x  Mute note
===============================================================================
            
Submit corrections

↑ Back to top | Tablatures and chords for acoustic guitar and electric guitar, ukulele, drums are parodies/interpretations of the original songs. You may use it for private study, scholarship, research or language learning purposes only