Home » T » The Sunshine Underground »

The Sunshine Underground - Nothing To Fear Bass

Artists:  A B C D E F G H I J K L M N O P Q R S T U V W X Y Z # 

Nothing To Fear Bass
Version #1
The Sunshine Underground


Copy URL
Tuning: EADG


Verse:

   Em             D               Am
G|--------------|---7-----------|--------------|---------|
D|----2-2-2---2-|---------------|----------7---|-5-------|
A|--------------|-5-------5-4---|--------------|---------|
E|-0------------|-------------3-|-5--5-5-5---5-|---------|



Chorus:

   Em             D               Am
G|--------------|----7----7-6---|------------|-----------|
D|----2-2--0--2-|-------------7-|-7-7--5--7--|-----------|
A|--------------|-5-------------|------------|-5-4-------|
E|-0------------|---------------|------------|-----3-5---|

Sometimes the third bar is repeated instead of playing the fourth bar, this comes in later in the song.
            
Submit corrections

↑ Back to top | Tablatures and chords for acoustic guitar and electric guitar, ukulele, drums are parodies/interpretations of the original songs. You may use it for private study, scholarship, research or language learning purposes only