Home » T » The Sunshine Underground »

The Sunshine Underground - Dead Scene Bass

Artists:  A B C D E F G H I J K L M N O P Q R S T U V W X Y Z # 

Dead Scene Bass
Version #1
The Sunshine Underground


Copy URL
Tuning: Drop D
intro. 00:23
G|----------------------------------|
D|----------------------------------|
A|----------------------------------| X2
D|--000-000-000-000-000-000-000-000-|

verse.		   X4			       X1
G|-------------------|---------------------------|
D|-------------------|--33333333-----------------|
A|--5-5/1515-13\-----|----------33333034---------|
D|-------------------|---------------------------|

Break 1.
G|-------------------|
D|-------------------|
A|-------------------| X1
D|--0x0x00x0x00x0x0--|

Break 2.
G|----------------------|
D|----------------------|
A|--5--3-2--------------|
D|---------000-000-000--|

Back to verse.

Chorus.
G|--------------------------------------------|------|
D|---------------------333333333-55-33-22-33--|--5~--|
A|--5555555555555555333-----------------------|------|
D|--------------------------------------------|------|

Break For Drums.

Verse 2.
		   X4			       X1
G|-------------------|---------------------------|
D|-------------------|--33333333-----------------|
A|--5-5/1515-13\-----|----------33333034---------|
D|-------------------|---------------------------|
Variation.
G|-------------------|
D|-------------------|
A|--5-555/1515-13\---|
D|-------------------|

Outro.
G|-------------------|---------------------|
D|-------------------|--//1717171717171717-|
A|-------------------|---------------------|
D|--0x0x00x0x00x0x0--|---------------------|

End on.
G|--------|
D|--------|
A|--------|
D|--10\---|

Cheers.
            
Submit corrections

↑ Back to top | Tablatures and chords for acoustic guitar and electric guitar, ukulele, drums are parodies/interpretations of the original songs. You may use it for private study, scholarship, research or language learning purposes only