Home » T » The Sunshine Underground »

The Sunshine Underground - A Warning Sign Bass

Artists:  A B C D E F G H I J K L M N O P Q R S T U V W X Y Z # 

A Warning Sign Bass
Version #1
The Sunshine Underground


Copy URL
The Sunshine Underground - A Warning Sign
taken from the album 'Nobody's Coming To Save You'

[Riff 1]

G|------------------------------------------------------|
D|------------------------------------------------------|
A|------------------------------3-3/15-1515131513-5543--|
E|--3-3/15-1515131513-5543------------------------------|

[Riff 2]

G|-------------------------------|
D|-------------------------------|
A|--33333333/151515151515151515--|
E|-------------------------------|

[Riff 3]

G|---------------------------|
D|---------------------------|
A|--------------6-6-3-3-3-3--|
E|--3-3-3-3-3-3--------------|

[Chorus Riff]

G|--------------------------------------------------|
D|--------------------------------------------------|
A|--6666666666668888101010101010101010101010108886--|
E|--------------------------------------------------|

G|--------------------------------------------------|
D|--------------------------------------------------|
A|---------------10101010------------10101010-------|
E|--6666666666666--------888888888888---------------|
            
Submit corrections

↑ Back to top | Tablatures and chords for acoustic guitar and electric guitar, ukulele, drums are parodies/interpretations of the original songs. You may use it for private study, scholarship, research or language learning purposes only