Home » T » The Speaks »

The Speaks - Prelude To Life Tabs

Artists:  A B C D E F G H I J K L M N O P Q R S T U V W X Y Z # 

Prelude To Life Tabs

(ver. 1) Click to play this song!
The Speaks
                                    THE SPEAKS
                                =================
                                 PRELUDE TO LIFE
                                =================

            


Call/Txt me At : 09157906477

             

“Instrumental song,just listen to the cd to get the timing”

*(00:00-00:13)
e---------------------|
b---------------------|
g------9--------9-----|
d----9--------9--9----|
a---------------------|
E-7-------5-----------|


*(00:14-00:53)
e------------------|------------------|------------------|------------------|
b------------------|------------------|------------------|------------------|
g-----8---8h9-8---9|-----8---8h9-8----|-----8---8h9-8----|-----8---8h9-8----|
d---9---9-------9--|---9---9-------9--|---9---9-------9--|---9---9-------9--|
a------------------|------------------|------------------|------------------|
E-0----------------|-7---------------7|-5---------------5|-7---------------7|


*distorted part*
(00:27-01:34)
e-----19~-17-16h17-16----------|
b-17~-----------------17~----17|
g-------------------------16---|(2x)
d------------------------------|
a------------------------------|
E------------------------------|
Continuation...
e------19-17-16h17-16-------------------19-17-16h17-16-------------------16-17-16h17p16---------|
b-1717----------------17~(3x)then..1717-------------------19-17----17-19-------------------17~~-|
g------------------------------------------------------16-------16----------------------16------|(2x)
d-----------------------------------------------------------------------------------------------|
a-----------------------------------------------------------------------------------------------|
E-----------------------------------------------------------------------------------------------|

--End—

MY BAND AT KETE SCHOOL:
Vocal:Basil-------|
Guitar:Brandon----|
Guitar:Ruth-------|==LIMELIGHT=
Drums:Rachelle----|
Bass:Von----------|
            
Submit corrections

↑ Back to top | Tablatures and chords for acoustic guitar and electric guitar, ukulele, drums are parodies/interpretations of the original songs. You may use it for private study, scholarship, research or language learning purposes only