Home » T » The Speaks »

The Speaks - High Tabs

Artists:  A B C D E F G H I J K L M N O P Q R S T U V W X Y Z # 

High Tabs

(ver. 3) Click to play this song!
The Speaks
 Rating:
4/5 (4 votes)
                -------------------------------------------------------------------------------
                             HIGH - The Speaks
-------------------------------------------------------------------------------

add nio ako sa frienster ha....
to all my friends alam nio na to...hehehe
hi to all....
comment naman po kau dito...
sabihin nio kung ano mali ha...

Intro:

e|--2---------2-----------------|----------------2---------------------------|
B|-----3---------3-------3------|--5----------------------5---------2--------|
G|--------2---------2--------0--|-------2---------------------2---------2----|
D|--0---------0-----------------|------------2-------------------------------|
A|------------------------------|--4-------------4---------------------------|
E|------------------------------|--------------------------------------------|

e|-------------2----------------|--------------------------------------------|
B|---3---------------3-------3--|---3--3--------3--------------2-------------|
G|------4----------------4------|---------0----------0-----------------------|
D|---------4--------------------|------------0-----------0-------------------|
A|---2---------2----------------|------------------------------0-------------|
E|------------------------------|------3--------3----------------------------|

eto ang adlib pagkatapos ung chorus na una....
e|----------------12-------10-10----9h10p9---------------------|--7---7-7----|
B|---10---10-10-------10----------------------10---(2x yan)----|-------------|
G|-------------------------------------------------------------|-------------|
D|-------------------------------------------------------------|-------------|
A|-------------------------------------------------------------|-------------|
E|-------------------------------------------------------------|-------------|

e|---10-10--7---10-10----9-10-9----------|-----------------------------------|
B|----------------------------------10---|--7-8-8--8/10-10---10/12-12--------|
G|---------------------------------------|-----------------------------------|
D|---------------------------------------|-----------------------------------|
A|---------------------------------------|-----------------------------------|
E|---------------------------------------|-----------------------------------|

e|--10-9-10------------------------------------------------------------------|
B|---------------------------------------------------------------------------|
G|---------------------------------------------------------------------------|
D|---------------------------------------------------------------------------|
A|---------------------------------------------------------------------------|
E|---------------------------------------------------------------------------|

eto na po ung adlib....mga 2min:37sec....
e|-----------------------------------------------------------|---------------|
B|------------7----------------------------------------------|---------------|
G|--7-7---9-------9--7--9--7-6-7----6---4---4h6---2---0------|---------------|
D|-------------------------------------------------------4---|--4h5/7--------|
A|-----------------------------------------------------------|---------------|
E|-----------------------------------------------------------|---------------|

e|----------------|----------------------------------------------------------|
B|----------------|-------------7---------8/10---8-7-8-7---------7-8---------|
G|--6-----7-6-----|--6/7-7---9------9-7--------------------9-7h9--------7----|
D|-----7-------7--|----------------------------------------------------------|
A|----------------|----------------------------------------------------------|
E|----------------|----------------------------------------------------------|

e|-----------------------10-9-10---------------------------------------------|
B|-------7--8------8/10------------------------------------------------------|
G|--7h9---------7------------------------------------------------------------|
D|---------------------------------------------------------------------------|
A|---------------------------------------------------------------------------|
E|---------------------------------------------------------------------------|

thats all.....sori walang lyrics...hehehe....kung gusto nio makita kung paano to iplay 
magmessage lang po kau sa friendster ko tapos ipopost ko kung paano...

| /  slide up
| \  slide down
| h  hammer-on
| p  pull-off
| ~  vibrato
| +  harmonic
| x  Mute note
===============================================================================
            
Submit corrections

↑ Back to top | Tablatures and chords for acoustic guitar and electric guitar, ukulele, drums are parodies/interpretations of the original songs. You may use it for private study, scholarship, research or language learning purposes only