Home » T » The Soundtrack Of Our Lives »

The Soundtrack Of Our Lives - Harvest Moon Tabs

Artists:  A B C D E F G H I J K L M N O P Q R S T U V W X Y Z # 

Harvest Moon Tabs

(ver. 1) Click to play this song!
The Soundtrack Of Our Lives
[Intro]
e|---------------------------------------------------------------------------|
B|-1--1-1---3--3-3---4--4-4---3--3-3------1--1-1---3--3-3---4--4-4---3--3-3--|
G|---------------------------------------------------------------------------|
D|-3--3-3---3--3-3---3--3-3---3--3-3------3--3-3---3--3-3---3--3-3---3--3-3--|
A|---------------------------------------------------------------------------|
E|---------------------------------------------------------------------------|

e|---------------------------------------------------------------------------|
B|-1--1-1---3--3-3---4--4-4---3--3-3------1--1-1---3--3-3---4--4-4---3--3-3--|
G|---------------------------------------------------------------------------|
D|-3--3-3---3--3-3---3--3-3---3--3-3------3--3-3---3--3-3---3--3-3---3--3-3--|
A|---------------------------------------------------------------------------|
E|---------------------------------------------------------------------------|

[Verse]
e|----------------3----------------------------------------------------------|
B|--------6-----6---6-----4--3-----------------------------------------------|
G|------------------------------5--3--2-3-4--5-------------------------------|
D|---3--3-----3---------3----------------------------------------------------|
A|---------------------------------------------------------------------------|
E|---------------------------------------------------------------------------|

e|---------------3-------------3---------------------------------------------|
B|--------6----6---6---3---3-5----6-5-6--------------------------------------|
G|---------------------------------------------------------------------------|
D|---3--3----3-----------5---------------------------------------------------|
A|---------------------------------------------------------------------------|
E|---------------------------------------------------------------------------|

[Chorus 1]
e|------3--------------------------------------------------------------------|
B|---6-----6--4-4-3-3---------------------------6-6-4-4-3-3----------2-3-----|
G|--------------------5-5-3-3-2--3-4-5----------------------5-5-4--5---------|
D|-------------------------------------------3-------------------------------|
A|---------------------------------------------------------------------------|
E|---------------------------------------------------------------------------|

e|---------------------------------------------------------------------------|
B|---------4---4--3--------------------6-------6-----------------------------|
G|------------------5-3-----3-3-5--------------------------------------------|
D|---5-3-5--------------5----------3-------3-------3-------------------------|
A|---------------------------------------------------------------------------|
E|---------------------------------------------------------------------------|

[Chorus 2]
e|------3--------------------------------------------------------------------|
B|---6-----6------------------------------------3-3--------------------------|
G|-------------5-5-3-3-2-2--------------------------5-5-4-4-2-2---2-3-4------|
D|-------------------------5-5-3--5-6-7------5------------------5------------|
A|---------------------------------------------------------------------------|
E|---------------------------------------------------------------------------|

e|---------3---3-------------------------------------------------------------|
B|----------------6-4-3-----3-3-4------6--6-6--6-6--6-6--6-6--6-6--6-6--6-6--|
G|---5-3-5--------------5----------5-----------------------------------------|
D|---------------------------------------------------------------------------|
A|---------------------------------------------------------------------------|
E|---------------------------------------------------------------------------|            
Submit corrections

↑ Back to top | Tablatures and chords for acoustic guitar and electric guitar, ukulele, drums are parodies/interpretations of the original songs. You may use it for private study, scholarship, research or language learning purposes only