» » »

The Smith Street Band - Bigmouth Strikes Again Tabs

Artists:  A B C D E F G H I J K L M N O P Q R S T U V W X Y Z # 

Bigmouth Strikes Again Tabs

(ver. 1) Click to play this song!
The Smith Street Band
 Rating:
4.3/5 (25 votes)

 Bigmouth Strikes Again  lessons Tabs too difficult? Try these video lessons and learn fast
 
                 Intro
  Q=133
  Am                  C                 Dadd11Dadd9add11
 4/4
  Gtrs I, II (Clean El. & Ac. Gtr. w/ capo 4th fret)
  E S S E S S E S S E E   +S  S E E S S E S S E S S
|-0-0-0-0-0-0-0-0-0-0-3-|-(3)-3-3-3-3-3-5-5-5-0-0-0-|
|-1-1-1-1-1-1-1-1-1-1-1-|-(1)-1-1-1-1-1-3-3-3-3-3-3-|
|-2-2-2-2-2-2-2-2-2-2-0-|-(0)-0-0-0-0-0-0-0-0-0-0-0-|
|-2-----2-----2-----2-2-|-(2)-2-2-2-2-2-4-4-4-4-4-4-|
|-0-----0-----0-----0-3-|-(3)-3-3-3-3-3-5-5-5-5-5-5-|
|-----------------------|---------------------------|


  Am                  F           Fmaj7 G5
  E S S E S S E S S E E   +S  S E E S S E S S E S S
|-0-0-0-0-0-0-0-0-0-0-1-|-(1)-1-1-0-0-0-------------||
|-1-1-1-1-1-1-1-1-1-1-1-|-(1)-1-1-1-1-1-3-3-3-3-3-3-||
|-2-2-2-2-2-2-2-2-2-0-2-|-(2)-2-2-2-2-2-0-0-0-0-0-0-||
|-2-----2-----2-----0-3-|-(3)-3-3-3-3-3-0-0-0-0-0-0-||
|-0-----0-----0---------|---------------x-x-x-x-x-x-||
|-----------------------|---------------3-3-3-3-3-3-||


   1st Verse
    Am                  C                 Dadd11        Am                  F
    E S S E S S E S S E E   +S  S E E S S E S S E S S   E S S E S S E S S E E
||--0-0-0-0-0-0-0-0-0-0-3-|-(3)-3-3-3-3-3-5-5-5-0-0-0-|-0-0-0-0-0-0-0-0-0-0-1-|
||o-1-1-1-1-1-1-1-1-1-1-1-|-(1)-1-1-1-1-1-3-3-3-3-3-3-|-1-1-1-1-1-1-1-1-1-1-1-|
||--2-2-2-2-2-2-2-2-2-2-0-|-(0)-0-0-0-0-0-0-0-0-0-0-0-|-2-2-2-2-2-2-2-2-2-0-2-|
||--2-----2-----2-----2-2-|-(2)-2-2-2-2-2-4-4-4-4-4-4-|-2-----2-----2-----0-3-|
||o-0-----0-----0-----0-3-|-(3)-3-3-3-3-3-5-5-5-0-0-0-|-0-----0-----0---------|
||------------------------|---------------------------|-----------------------|


          Fmaj7 G5
  +S  S E E S S E S S E S S  4x
|-(1)-1-1-0-0-0--------------||-|
|-(1)-1-1-1-1-1-3-3-3-3-3-3-o||-|
|-(2)-2-2-2-2-2-0-0-0-0-0-0--||-|
|-(3)-3-3-3-3-3-0-0-0-0-0-0--||-|
|---------------x-x-x-x-x-x-o||-|
|---------------3-3-3-3-3-3--||-|


   2nd Verse
    Am                  C                 Dadd11Dadd9add11/A
    E S S E S S E S S E E   +S  S E E S S E S S E S S
||--0-0-0-0-0-0-0-0-0-0-3-|-(3)-3-3-3-3-3-5-5-5-0-0-0--|
||o-1-1-1-1-1-1-1-1-1-1-1-|-(1)-1-1-1-1-1-3-3-3-3-3-3--|
||--2-2-2-2-2-2-2-2-2-2-0-|-(0)-0-0-0-0-0-0-0-0-0-0-0--|
||--2-----2-----2-----2-2-|-(2)-2-2-2-2-2-4-4-4-4-4-4--|
||o-0-----0-----0-----0-3-|-(3)-3-3-3-3-3-5-5-5-0-0-0--|
||------------------------|----------------------------|


  Am                  F           Fmaj7 G5
  E S S E S S E S S E E   +S  S E E S S E S S E S S
|-0-0-0-0-0-0-0-0-0-0-1-|-(1)-1-1-0-0-0--------------||
|-1-1-1-1-1-1-1-1-1-1-1-|-(1)-1-1-1-1-1-3-3-3-3-3-3-o||
|-2-2-2-2-2-2-2-2-2-0-2-|-(2)-2-2-2-2-2-0-0-0-0-0-0--||
|-2-----2-----2-----0-3-|-(3)-3-3-3-3-3-0-0-0-0-0-0--||
|-0-----0-----0---------|---------------x-x-x-x-x-x-o||
|-----------------------|---------------3-3-3-3-3-3--||
|
|                                                   Gtr
| W                        W
|-----------------------|----------------------------||
|-----------------------|---------------------------o||
|-----------------------|----------------------------||
|-----------------------|----------------------------||
|-----------------------|---------------------------o||
|-----------------------|----------------------------||


 Interlude
  Am                    C
  E S S E S S E   S S E E
|-0-0-0-0-0-0-0---0-0-0-3-|
|-1-1-1-1-1-1-1---1-1-1-1-|
|-2-2-2-2-2-2-2---2-2-2-0-|
|-2-----2-----2-------2-2-|
|-0-----0-----0-------0-3-|
|-------------------------|
|
| III (Clean El. Gtr. w/ capo 4th fret)
| E E   E S S S S S S E E
|---0---------------------|
|-------3---1---1---1-0-1-|
|-------------------------|
|-------------------------|
|-------------------------|
|-------------------------|


                Dadd11  Dadd9add1AmA
  +S  S E E S S  E  S S  E S S
|-(3)-3-3-3-3-3--5--5-5--0-0-0-|
|-(1)-1-1-1-1-1--3--3-3--3-3-3-|
|-(0)-0-0-0-0-0--0--0-0--0-0-0-|
|-(2)-2-2-2-2-2--4--4-4--4-4-4-|
|-(3)-3-3-3-3-3--5--5-5--0-0-0-|
|------------------------------|
|
| Gtr III
|  E    E E S S +Q       E E
|-------0----------------3-0---|
|---------3---1-(1)------------|
|------------------------------|
|------------------------------|
|------------------------------|
|------------------------------|
|
| Gtr IV (Clean El. Gtr.)
|  H             Q       E E
|------------------------------|
|-----------------------12s9---|
|------------------------------|
|------------------------------|
|------------------------------|
|------------------------------|


                          F           Fmaj7  G5
   E  S S E S S E   S S E E   +S  S E E  S S E   S S E S S
|--0--0-0-0-0-0-0---0-0-0-1-|-(1)-1-1-0--0-0---------------|
|--1--1-1-1-1-1-1---1-1-1-1-|-(1)-1-1-1--1-1-3---3-3-3-3-3-|
|--2--2-2-2-2-2-2---2-2-0-2-|-(2)-2-2-2--2-2-0---0-0-0-0-0-|
|--2------2-----2-------0-3-|-(3)-3-3-3--3-3-0---0-0-0-0-0-|
|--0------0-----0-----------|----------------x---x-x-x-x-x-|
|---------------------------|----------------3---3-3-3-3-3-|
|
| +E  E   E S S S S S S E E   +E    E E.   S S S S S E E
|-(0)-0---------------------|------------------------3-0---|
|---------3---1---1---1-3-1-|-(1)---1-1----1---1---1-------|
|---------------------------|------------------------------|
|---------------------------|------------------------------|
|---------------------------|------------------------------|
|---------------------------|------------------------------|
|
| +W                          +H.                    Q
|---------------------------|------------------------------|
|-(9)-----------------------|-(9)--------------------------|
|---------------------------|------------------------------|
|---------------------------|------------------------------|
|---------------------------|------------------------------|
|---------------------------|------------------------------|


  Am                      C
   E  S S E S S E   S S E E
|--0--0-0-0-0-0-0---0-0-0-3-|
|--1--1-1-1-1-1-1---1-1-1-1-|
|--2--2-2-2-2-2-2---2-2-2-0-|
|--2------2-----2-------2-2-|
|--0------0-----0-------0-3-|
|---------------------------|
|
| +E  E   E S S S S S S E E
|-(0)-0---------------------|
|---------3---1---1---1-0-1-|
|---------------------------|
|---------------------------|
|---------------------------|
|---------------------------|
|
|  W
|---------------------------|
|---------------------------|
|---------------------------|
|---------------------------|
|---------------------------|
|---------------------------|


                Dadd11  Dadd9add1AmA                     F
  +S  S E E S S  E  S S  E S S    E  S S E S S E   S S E E
|-(3)-3-3-3-3-3--5--5-5--0-0-0-|--0--0-0-0-0-0-0---0-0-0-1--|
|-(1)-1-1-1-1-1--3--3-3--3-3-3-|--1--1-1-1-1-1-1---1-1-1-1--|
|-(0)-0-0-0-0-0--0--0-0--0-0-0-|--2--2-2-2-2-2-2---2-2-0-2--|
|-(2)-2-2-2-2-2--4--4-4--4-4-4-|--2------2-----2-------0-3--|
|-(3)-3-3-3-3-3--5--5-5--0-0-0-|--0------0-----0------------|
|------------------------------|----------------------------|
|
|  E    E E S S +Q       E E     +E  E   E S S S S S S E E
|-------0----------------3-0---|-(0)-0----------------------|
|---------3---1-(1)------------|---------3---1---1---1-3-1--|
|------------------------------|----------------------------|
|------------------------------|----------------------------|
|------------------------------|----------------------------|
|------------------------------|----------------------------|
|
|  H             Q       E E     +W
|------------------------------|----------------------------|
|-----------------------12s9---|-(9)------------------------|
|------------------------------|----------------------------|
|------------------------------|----------------------------|
|------------------------------|----------------------------|
|------------------------------|----------------------------|


          Fmaj7  G5
  +S  S E E  S S E   S S E S S
|-(1)-1-1-0--0-0---------------|
|-(1)-1-1-1--1-1-3---3-3-3-3-3-|
|-(2)-2-2-2--2-2-0---0-0-0-0-0-|
|-(3)-3-3-3--3-3-0---0-0-0-0-0-|
|----------------x---x-x-x-x-x-|
|----------------3---3-3-3-3-3-|
|
| +E    E E.   S S S S S E E
|------------------------3-0---|
|-(1)---1-1----1---1---1-------|
|------------------------------|
|------------------------------|
|------------------------------|
|------------------------------|
|
| +H.                    Q
|------------------------------|
|-(9)--------------------------|
|------------------------------|
|------------------------------|
|------------------------------|
|------------------------------|


  Am                      C                 Dadd11  Dadd9add11/A
   E  S S E S S E   S S E E   +S  S E E S S  E  S S  E S S
|--0--0-0-0-0-0-0---0-0-0-3-|-(3)-3-3-3-3-3--5--5-5--0-0-0-|
|--1--1-1-1-1-1-1---1-1-1-1-|-(1)-1-1-1-1-1--3--3-3--3-3-3-|
|--2--2-2-2-2-2-2---2-2-2-0-|-(0)-0-0-0-0-0--0--0-0--0-0-0-|
|--2------2-----2-------2-2-|-(2)-2-2-2-2-2--4--4-4--4-4-4-|
|--0------0-----0-------0-3-|-(3)-3-3-3-3-3--5--5-5--0-0-0-|
|---------------------------|------------------------------|
|
| +E  E   E S S S S S S E E    E    E E S S +Q       E E
|-(0)-0---------------------|-------0----------------3-0---|
|---------3---1---1---1-0-1-|---------3---1-(1)------------|
|---------------------------|------------------------------|
|---------------------------|------------------------------|
|---------------------------|------------------------------|
|---------------------------|------------------------------|
|
|  W                           H             Q       E E
|---------------------------|------------------------------|
|---------------------------|-----------------------12s9---|
|---------------------------|------------------------------|
|---------------------------|------------------------------|
|---------------------------|------------------------------|
|---------------------------|------------------------------|


  Am                      F
   E  S S E S S E   S S E E
|--0--0-0-0-0-0-0---0-0-0-1-|
|--1--1-1-1-1-1-1---1-1-1-1-|
|--2--2-2-2-2-2-2---2-2-0-2-|
|--2------2-----2-------0-3-|
|--0------0-----0-----------|
|---------------------------|
|
| +E  E   E S S S S S S E E
|-(0)-0---------------------|
|---------3---1---1---1-3-1-|
|---------------------------|
|---------------------------|
|---------------------------|
|---------------------------|
|
| +W
|---------------------------|
|-(9)-----------------------|
|---------------------------|
|---------------------------|
|---------------------------|
|---------------------------|


          Fmaj7  G5              Am                      C
  +S  S E E  S S E   S S E S S    E  S S E S S E   S S E E
|-(1)-1-1-0--0-0---------------|--0--0-0-0-0-0-0---0-0-0-3-|
|-(1)-1-1-1--1-1-3---3-3-3-3-3-|--1--1-1-1-1-1-1---1-1-1-1-|
|-(2)-2-2-2--2-2-0---0-0-0-0-0-|--2--2-2-2-2-2-2---2-2-2-0-|
|-(3)-3-3-3--3-3-0---0-0-0-0-0-|--2------2-----2-------2-2-|
|----------------x---x-x-x-x-x-|--0------0-----0-------0-3-|
|----------------3---3-3-3-3-3-|---------------------------|
|
| +E    E E.   S S S S S E E     +E  E   E S S S S S S E E
|------------------------3-0---|-(0)-0---------------------|
|-(1)---1-1----1---1---1-------|---------3---1---1---1-0-1-|
|------------------------------|---------------------------|
|------------------------------|---------------------------|
|------------------------------|---------------------------|
|------------------------------|---------------------------|
|
| +H.                    Q        W
|------------------------------|---------------------------|
|-(9)--------------------------|---------------------------|
|------------------------------|---------------------------|
|------------------------------|---------------------------|
|------------------------------|---------------------------|
|------------------------------|---------------------------|


                Dadd11  Dadd9add1Am                      F
  +S  S E E S S  E  S S  E S S    E  S S E S S E   S S E  E
|-(3)-3-3-3-3-3--5--5-5--0-0-0-|--0--0-0-0-0-0-0---0-0-0--1-|
|-(1)-1-1-1-1-1--3--3-3--3-3-3-|--1--1-1-1-1-1-1---1-1-1--1-|
|-(0)-0-0-0-0-0--0--0-0--0-0-0-|--2--2-2-2-2-2-2---2-2-0--2-|
|-(2)-2-2-2-2-2--4--4-4--4-4-4-|--2------2-----2-------0--3-|
|-(3)-3-3-3-3-3--5--5-5--5-5-5-|--0------0-----0------------|
|------------------------------|----------------------------|
|
|  E    E E S S +Q       E E     +E  E   E S S S S S S E  E
|-------0----------------3-0---|-(0)-0----------------------|
|---------3---1-(1)------------|---------3---1---1---1-3--1-|
|------------------------------|----------------------------|
|------------------------------|----------------------------|
|------------------------------|----------------------------|
|------------------------------|----------------------------|
|
|  H             Q       E E     +H.                   E  E
|------------------------------|----------------------------|
|-----------------------12s9---|-(9)-------------------9s10-|
|------------------------------|----------------------------|
|------------------------------|----------------------------|
|------------------------------|----------------------------|
|------------------------------|----------------------------|


           Fmaj7   G5
   +S  S E E   S S   E    S S E S S
|--(1)-1-1-0---0-0------------------||
|--(1)-1-1-1---1-1---3----3-3-3-3-3-||
|--(2)-2-2-2---2-2---0----0-0-0-0-0-||
|--(3)-3-3-3---3-3---0----0-0-0-0-0-||
|--------------------x----x-x-x-x-x-||
|--------------------3----3-3-3-3-3-||
|
|  +E    E E.    S   S  S S S E E
|-----------------------------3-0---||
|--(1)---1-1-----1------1---1-------||
|-----------------------------------||
|-----------------------------------||
|-----------------------------------||
|-----------------------------------||
|
|  +Q.         E    +H
|-----------------------------------||
|-(10)s=======12---(12)-------------||
|-----------------------------------||
|-----------------------------------||
|-----------------------------------||
|-----------------------------------||


   Chorus
    Am          C             Dadd11   Am          F             G
    Gtrs I, II
    Q  Q  E E E E   +E  E E E E E Q    Q  Q  E E E E   +E  E E E E E Q    3x
||----------------|------------------|-------------1-|-(1)-1-1-1----------||
||o-1--1--1-1-1-1-|-(1)-1-1-1-3-3-3--|-1--1--1-1-1-1-|-(1)-1-1-1-0-0-0---o||
||--2--2--2-2-2-0-|-(0)-0-0-0-0-0-0--|-2--2--2-2-2-2-|-(2)-2-2-2-0-0-0----||
||--2--2--2-2-2-2-|-(2)-2-2-2-4-4-4--|-2--2--2-2-2-3-|-(3)-3-3-3-0-0-0----||
||o-0--0--0---0-3-|-(3)-3-3-3-5-5-5--|-0--0--0---0---|-----------x---x---o||
||----------------|------------------|---------------|-----------3---3----||


   3rd Verse
    Am                  C                 Dadd11Dadd9add11/A
    E S S E S S E S S E E   +S  S E E S S E S S E S S
||--0-0-0-0-0-0-0-0-0-0-3-|-(3)-3-3-3-3-3-5-5-5-0-0-0-|
||o-1-1-1-1-1-1-1-1-1-1-1-|-(1)-1-1-1-1-1-3-3-3-3-3-3-|
||--2-2-2-2-2-2-2-2-2-2-0-|-(0)-0-0-0-0-0-0-0-0-0-0-0-|
||--2-----2-----2-----2-2-|-(2)-2-2-2-2-2-4-4-4-4-4-4-|
||o-0-----0-----0-----0-3-|-(3)-3-3-3-3-3-5-5-5-0-0-0-|
||------------------------|---------------------------|


  Am                  F           Fmaj7 G5
  E S S E S S E S S E E   +S  S E E S S E S S E S S
|-0-0-0-0-0-0-0-0-0-0-1-|-(1)-1-1-0-0-0--------------||
|-1-1-1-1-1-1-1-1-1-1-1-|-(1)-1-1-1-1-1-3-3-3-3-3-3-o||
|-2-2-2-2-2-2-2-2-2-0-2-|-(2)-2-2-2-2-2-0-0-0-0-0-0--||
|-2-----2-----2-----0-3-|-(3)-3-3-3-3-3-0-0-0-0-0-0--||
|-0-----0-----0---------|---------------x-x-x-x-x-x-o||
|-----------------------|---------------3-3-3-3-3-3--||


 Interlude
  E5                      D          E5          F5        G5
  Gtrs I, II
  S S S S E E H      H    Q  E  E    Q  Q  E E E E   E E E  E  E  E  Q
|------------------|------2--2--2--|---------------|--------------------|
|------------------|------3--3--3--|---------------|--------------------|
|------------------|------2--2--2--|---------------|--------------------|
|-2-2-2-2-2--------|------0--0--0--|-2--2--2-2---3-|---3----5--5--5--5--|
|-2-2-2-2-2--------|---------------|-2--2--2-2---3-|---3----5--5--5--5--|
|-0-0-0-0-0--------|---------------|-0--0--0-0---1-|---1----3--3--3--3--|
|
| Gtr III
| S S S S e E H      H    Q  E  E    q  q  E E E E   E E E  E  E  E  Q
|-7-7-7-7-7--------|------2--------|-7--7--7-7---8-|---8---10-10-10-10--|
|-5-5-5-5-5--------|------3--3-(0)-|-5--5--5-5---6-|---6----8--8--8--8--|
|-4-4-4-4-4--------|------2--2-----|-4--4--4-4---5-|---5----7--7--7--7--|
|------------------|---------0-----|---------------|--------------------|
|------------------|---------------|---------------|--------------------|
|------------------|---------------|---------------|--------------------|


  E5                                      D
  Q     Q     S S E S S E   +Q        E E E E E  E
|-------------------------|---------------2-2-2-(2)-|
|-------------------------|---------------3-3-3-(3)-|
|-------------------------|---------------2-2-2-(2)-|
|-2-----2-----x-x-2-x-x-2-|-(2)-------2-2-0-0-0-(0)-|
|-2-----2-----x-x-2-x-x-2-|-(2)-------2-2-----------|
|-0-----0-----x-x-0-x-x-0-|-(0)-------0-0-----------|
|
| E S S E S S S S E S S E   +S  S S S E E E E E  E
|-7-7-7-7-x-x-x-x-7-x-x-7-|-(7)-7-7-7-7-7-2-2-2--7--|
|-5-5-5-5-x-x-x-x-5-x-x-5-|-(5)-5-5-5-5-5-3-3-3-----|
|-4-4-4-4-x-x-x-x-4-x-x-4-|-(4)-4-4-4-4-4-2-2-2-(4)-|
|-------------------------|-------------------------|
|-------------------------|-------------------------|
|-------------------------|-------------------------|


                        F5            G5
  Q       Q     Q       E E   E E E E  E E  E     E
|-2-------2-----2-----------|-----------------------||
|-3-------3-----3-----------|-----------------------||
|-2-------2-----2-----------|-----------------------||
|-0-------0-----0-------3-3-|-3-3-3-3--5-5--5-----5-||
|-----------------------3-3-|-3-3-3-3--5-5--5-----5-||
|-----------------------1-1-|-1-1-1-1--3-3--3-----3-||
|
|                             TP  TP   TP
| S S S S e S S S S S S E E   Q   Q    Q    S  S  E
|-7-7-7-7-7-7-7-7-7-7-7S8-8-|-8---8---10---10-10-10-||
|-5-5-5-5-5-5-5-5-5-5-5S6-6-|-6---6----8----8--8--8-||
|-4-4-4-4-4-4-4-4-4-4-4S5-5-|-5---5----7----7--7--7-||
|---------------------------|-----------------------||
|---------------------------|-----------------------||
|---------------------------|-----------------------||


   Out-Chorus
    Am          C             Dadd11   Am          F             G
    Gtrs I, II, III
    Q  Q  E E E E   +E  E E E E E Q    Q  Q  E E E E   +E  E E E E E Q    3x
||----------------|------------------|-------------1-|-(1)-1-1-1----------||
||o-1--1--1-1-1-1-|-(1)-1-1-1-3-3-3--|-1--1--1-1-1-1-|-(1)-1-1-1-0-0-0---o||
||--2--2--2-2-2-0-|-(0)-0-0-0-0-0-0--|-2--2--2-2-2-2-|-(2)-2-2-2-0-0-0----||
||--2--2--2-2-2-2-|-(2)-2-2-2-4-4-4--|-2--2--2-2-2-3-|-(3)-3-3-3-0-0-0----||
||o-0--0--0---0-3-|-(3)-3-3-3-5-5-5--|-0--0--0---0---|-----------x---x---o||
||----------------|------------------|---------------|-----------3---3----||            
Submit corrections


        Bigmouth Strikes Again  lessons Hard to play? Try these video lessons and learn fast Bigmouth Strikes Again  lessons
        
↑ Back to top | Tablatures and chords for acoustic guitar and electric guitar, ukulele, drums are parodies/interpretations of the original songs. You may use it for private study, scholarship, research or language learning purposes only