» » »

The Sleeping - Listen Close Tabs

Artists:  A B C D E F G H I J K L M N O P Q R S T U V W X Y Z # 

Listen Close Tabs

(ver. 1) Click to play this song!
The Sleeping
 Rating:
4.1/5 (31 vote)

 Listen Close lessons Tabs too difficult? Try these video lessons and learn fast
 
                Tuning: Drop D


[Chorus & Intro]
e|-----------------------------------------------------------------------------------------------------------|
B|-----------------------------------------------------------------------------------------------------------|
G|-----------------------------------------------------------------------------------------------------------|
D|7-7-7-7-7-11-11-11-11-9-9-9-4-4-4-4-4-11-11-11-11-9-9-9-7-7-7-7-7-11-11-11-11-9-9-9-4-4-4-4-4-4-4-4-4-6-6-6|
A|7-7-7-7-7-11-11-11-11-9-9-9-4-4-4-4-4-11-11-11-11-9-9-9-7-7-7-7-7-11-11-11-11-9-9-9-4-4-4-4-4-4-4-4-4-6-6-6|
D|7-7-7-7-7-11-11-11-11-9-9-9-4-4-4-4-4-11-11-11-11-9-9-9-7-7-7-7-7-11-11-11-11-9-9-9-4-4-4-4-4-4-4-4-4-6-6-6|

[Verse]
e|-----------------------------------------------------------------------------------------------------------|
B|-----------------------------------------------------------------------------------------------------------|
G|-----------------------------------------------------------------------------------------------------------|
D|-----------------------------------------------------------------------------------------------------------|
A|-----------------------------------------------------------------------------------------------------------|
D|7-7-7-7-7-11-11-11-11-9-9-9-4-4-4-4-4-11-11-11-11-9-9-9-7-7-7-7-7-11-11-11-11-9-9-9-4-4-4-4-4-4-4-4-4-6-6-6|


[Bridge]
(verse riff is playing in the background as well)

e|----------------------------------------------------------------------------------------|
B|----------------------------------------------------------------------------------------|
G|----------------------------------------------------------------------------------------|
D|-----------2-5-4-0-0---2-2-2-4-5-2~-------4-5-7-2-2---2-2-2-5-4-5---5-4-5--5-4-5--5-7-9-|
A|----------------------------------------------------------------------------------------|
D|7~--------------------------------------------------------------------------------------|
            
Submit corrections


        Listen Close lessons Hard to play? Try these video lessons and learn fast Listen Close lessons
        
↑ Back to top | Tablatures and chords for acoustic guitar and electric guitar, ukulele, drums are parodies/interpretations of the original songs. You may use it for private study, scholarship, research or language learning purposes only