» » »

The Sherlocks - Chords

Artists:  A B C D E F G H I J K L M N O P Q R S T U V W X Y Z # 

Chords

(ver. 1) Click to play this song!
The Sherlocks
 Rating:
4.4/5 (7 votes)

  lessons Tabs too difficult? Try these video lessons and learn fast
 
                [Intro]

e|---------------------------------------------------------------------------|
B|---------------------------------------------------------------------------|
G|----10-12-14-14-12-12-14-14-12-12-14-14-12-14------------------------------|
D|-12------------------------------------------------------------------------|
A|---------------------------------------------------------------------------|
E|---------------------------------------------------------------------------|  x3

e|---------------------------------------------------------------------------|
B|---------------------------------------------------------------------------|
G|----10-12-14-14-12-12-14-14-12-12-14-14-12-14-12-10------------------------|
D|-12------------------------------------------------------------------------|
A|---------------------------------------------------------------------------|
E|---------------------------------------------------------------------------|  x1


[No lead guitar in verse]

e|---------------------------------------------------------------------------|
B|---------------------------------------------------------------------------|
G|---------------------------------------------------------------------------|
D|---------------------------------------------------------------------------|
A|---------------------------------------------------------------------------|
E|---------------------------------------------------------------------------| 


[Chorus 1]

e|---------------------------------------------------------------------------|
B|---------------------------------------------------------------------------|
G|----10-12-14-14-12-12 14-14-12-12-14-14-12-14------------------------------|
D|-12------------------------------------------------------------------------|
A|---------------------------------------------------------------------------|
E|---------------------------------------------------------------------------|  x3

e|---------------------------------------------------------------------------|
B|----------------------------------15-15-13-13------------------------------|
G|----10-12-14-14-12-12-14-14-12-12-------------14-14-12-12-10---------------|
D|-10------------------------------------------------------------------------|
A|---------------------------------------------------------------------------|
E|---------------------------------------------------------------------------|  x1


[Chorus 2 (solo)]

e|----------------------------------------------|
B|----------------------------------------------|
G|----10-12-14-14-12-12 14-14-12-12-14-14-12-14-|
D|-12-------------------------------------------|
A|----------------------------------------------|
E|----------------------------------------------|  

e|-------------------------------------------------------------------|
B|-------------------------------------------------------------------|
G|----10-12-14-14-12-12-14-14-12-12-14-12-14-14b-14br-12-12-12-12-12-|
D|-12----------------------------------------------------------------|
A|-------------------------------------------------------------------|
E|-------------------------------------------------------------------|

e|--------------------------------------------13-|
B|-15-13------------15-13------------15-15-15----|
G|-------14-12-10---------14-12-10---------------|
D|-----------------------------------------------|
A|-----------------------------------------------|
E|-----------------------------------------------|  x2
            
Submit corrections


         lessons Hard to play? Try these video lessons and learn fast  lessons
        
↑ Back to top | Tablatures and chords for acoustic guitar and electric guitar, ukulele, drums are parodies/interpretations of the original songs. You may use it for private study, scholarship, research or language learning purposes only