» » »

The Scene Aesthetic - Alamo Is No Place For Dancing Tabs

Artists:  A B C D E F G H I J K L M N O P Q R S T U V W X Y Z # 

Alamo Is No Place For Dancing Tabs

(ver. 1) Click to play this song!
The Scene Aesthetic
 Rating:
4.5/5 (8 votes)


 Alamo Is No Place For Dancing lessons Tabs too difficult? Try these video lessons and learn fast
 
                Couldnt find a correct tab on here, so i figured id try tabbing it instead.
some parts were taken from other tabs. 




Dsus2  Amaj  Gsus7  Asus2/D  Asus4/Gb    D/G    Gmaj
-----|-----|------|---------|---------|------|--------|
-----|-5---|------|----3----|----3----|---3--|---3----|
--7--|-6---|-7----|----2----|----2----|---2--|---4----|
--7--|-7---|-7----|---------|---------|------|---5----|
--5--|-7---|-x----|----2----|---------|------|---5----|
--5--|-5---|-7----|---------|----2----|---3--|---3----|
    
Intro
e----------------|
B----3-3---3-----|
G----------0h2---|
D---0-0-0-----0--| X 3
A----------------|
E--2------3------|

e-----------------------|
B--3p2---3p2---3p2---2--|
G-----2-----2-----2--2--|
D------0-----0-----0-0--|
A--------------------0--|
E-----------------------|


Gsus7          Asus4/Gb  D/G
Sing me a song, tell me about
D/G                          Gsus7
The things you're dealing with lately
Gsus7     Asus4/Gb
I don't understand how you could
Gsus7                     Asus4/Gb 
  Sing to me lies, let them linger
D/G             Gsus7
Inside of me, give me a reason
Gsus7            Asus4/Gb   D/G
To stay with you, just let me know
Asus2/D           Asus4/Gb   D/G
So I can run away faster than ever before

Dsus2                             Gsus7
Counting down all of the hours I've spent here
Gsus7                  Gmaj
Drowning in all of your lies dear
Asus2/D       Asus4/Gb    D/G
I wish that I could have been warned
  Dsus2            
So I'll tell them stay clear of Texas
Gsus7                                     Gmaj 
To warn them and let them all know what's in store
Asus2/D     Asus4/Gb        D/G 
To let them all know what's in store

----------------|
----3-3---3-----|
----------0h2---|
---0-0-0-----0--| X 3
----------------|
--2------3------|

-----------------------|
--3p2---3p2---3p2---2--|
-----2-----2-----2--2--|
------0-----0-----0-0--|
--------------------0--|
-----------------------|


Gsus7     
I can't tell you how much I'd love to take back every word I said
        Asus4/Gb                        D/G
You gave me every reason to ignore the lies you fed me then
Gsus7                                           Asus4/Gb  D/G
And I'm so sorry dear, I must escape before you suffo  -  cate me
Gmaj         Amaj                  Asus2/D
So I waited patiently as long as I could
Gmaj                              Amaj
Fought so hard for a girl, that I loved
             Asus2/D        Asus4/Gb   D/G             
But who later turned out to be someone I hardly knew


Dsus2                             Gsus7
Counting down all of the hours I've spent here
Gsus7                  Gmaj
Drowning in all of your lies dear
Asus2/D       Asus4/Gb    D/G
I wish that I could have been warned
  Dsus2            
So I'll tell them stay clear of Texas
Gsus7                                     Gmaj 
To warn them and let them all know what's in store
Asus2/D     Asus4/Gb        D/G 
To let them all know she's a whore

Solo part
e-------0--0---------0--------0--0------0-|
B----3---3--3------3--3-3-3-3--3--3-3-3-3-|
G-----2---2--2------2--2-2---2--2--2--2-2-|
D------------------------0------------0-0-|
A-------------------------------------0-0-|
E--3-----------3-2--------------------2-2-|

D/G               Asus4/Gb    D/G  Asus2/D                              Asus4/Gb
Spent a lot of my time trying to make this alright, trying to make this alright
D/G               Asus4/Gb    D/G  Asus2/D                              Asus4/Gb
Spent a lot of my time trying to make this alright, trying to make this alright
       (Alone now, I hope this is all that you wanted)
D/G               Asus4/Gb    D/G  Asus2/D                              Asus4/Gb
Spent a lot of my time trying to make this alright, trying to make this alright
 (And you'll be alone till, the time that you change, but you'll never change)
D/G               Asus4/Gb    D/G  Asus2/D                              Asus4/Gb
Spent a lot of my time trying to make this alright, trying to make this alright
 (And you'll be alone till, the time that you change, but you'll never change)
        (Alone now, I hope this is all that you wanted)


 D/G   Asus4/Gb  Asus2/D                 Asus4/Gb
Alone    now,    I hope this all that you wanted
              D/G   Asus4/Gb  Asus2/D                      Asus4/Gb
And you’ll be alone now,       I hope this is all that you wanted
            
Submit corrections



        Alamo Is No Place For Dancing lessons Hard to play? Try these video lessons and learn fast Alamo Is No Place For Dancing lessons
        
↑ Back to top | Tablatures and chords for acoustic guitar and electric guitar, ukulele, drums are parodies/interpretations of the original songs. You may use it for private study, scholarship, research or language learning purposes only