» » »

The Scene Aesthetic - Beauty In The Breakdown Chords

Artists:  A B C D E F G H I J K L M N O P Q R S T U V W X Y Z # 

Beauty In The Breakdown Chords

(ver. 1) Click to play this song!
The Scene Aesthetic
 Rating:
4/5 (14 votes)


 Beauty In The Breakdown lessons Tabs too difficult? Try these video lessons and learn fast
 
                Tuning: EADGBe

e|-------------------3-333-33--------33-333-333--| 
b|-------------------3-333-33--------33-333-333--| 
g|-----0-------------0-000-00-----0--00-000-000--| 
d|--0h2-2-0h2h0------2-222-22--0h2-0-22-220-000--| 
a|-------------3h0-3-3-333-33--------22-222-222--| 
e|----------------------------------------3-333--| 

e|-------------3-333-33--------33-333-333--------| 
b|-------------3-333-33--------33-333-333--------| 
g|-------------0-000-00-----0--00-000-000--------| 
d|--0h2h0------2-222-22--0h2-0-22-220-000--------| 
a|-------3h0-3-3-333-33--------22-222-222--------| 
e|----------------------------------3-333--------|

                             C
Come on, take a step towards me

Em                   G
So you can figure me out

C
I've been hoping and praying for a single way

Em                   G
To show you what I'm all about

C                                  Em          G
And I know, and I know this is the only way of pleasing the crowds

C                                            Em
But when this is over and done with and we walk away

                   G
There should be no doubts



         C/A     C/B         C
So let's get a little closer now

         C/A     C/B      C  C-
Let's get a little closer now



G                           C
You say, you say that we're all tied up

                          G    C
And wrapped around in useless, states of mind

                                 Em
But at the same time we're still young

            C                         
We have the time to realize that we were wrong



e|-------------------3-333-33--------33-333-333--| 
b|-------------------3-333-33--------33-333-333--| 
g|-----0-------------0-000-00-----0--00-000-000--| 
d|--0h2-2-0h2h0------2-222-22--0h2-0-22-220-000--| 
a|-------------3h0-3-3-333-33--------22-222-222--| 
e|----------------------------------------3-333--| 

e|-------------3-333-33--------33-333-333--------| 
b|-------------3-333-33--------33-333-333--------| 
g|-------------0-000-00-----0--00-000-000--------| 
d|--0h2h0------2-222-22--0h2-0-22-220-000--------| 
a|-------3h0-3-3-333-33--------22-222-222--------| 
e|----------------------------------3-333--------|


C
Come on love run with me

C
Get the hell out of this town

Em                     G
So we can get a better feel for each other

C
I'll take you, back to, when you

C
Remembered how you used to

Em                    G
Just live your life a little for me

C                 Em    G
Take the time to let it go

C             Em       G
Step away and watch me grow




         C/A     C/B       C
So let's get a little closer now

         C/A     C/B       C
Let's get a little closer now

G                     C
You say, you say that we're all tied up

                      G        C
And wrapped around in useless, states of mind

                                 Em
But at the same time we're still young
                                                                                         
                              C G C G C-
We have the time to realize that we were wrong




G
You can stay if you want to

      C                                                              G
And I write to you and tell you how you've always been so special to me

                                 C
You can stay if you want to, and I'll try

G
You can stay if you want to

      C                                                              G
And I write to you and tell you how you've always been so special to me

                                 C-
You can stay if you want to, and I'll try

   C/A      C/B      C
To keep you close to me (x3)



G                      C
You say, you say that we're all tied up

                      G        C
And wrapped around in useless, states of mind

                                 Em
But at the same time we're still young

            C       C
We have the time to realize that we were wrong
            
Submit corrections



        Beauty In The Breakdown lessons Hard to play? Try these video lessons and learn fast Beauty In The Breakdown lessons
        
↑ Back to top | Tablatures and chords for acoustic guitar and electric guitar, ukulele, drums are parodies/interpretations of the original songs. You may use it for private study, scholarship, research or language learning purposes only