Home » T » The Ronettes »

The Ronettes - Sleigh Ride Tabs

Artists:  A B C D E F G H I J K L M N O P Q R S T U V W X Y Z # 

Sleigh Ride Tabs

(ver. 1) Click to play this song!
The Ronettes
[Intro]
 
e|--3---3---3---3------5------3---0------------------------------------------|
B|------------------------------------1------3----3----5---3---1-------------|
G|-------------------------------------------------------------------2-----0-|
D|---------------------------------------------------------------------------|
A|---------------------------------------------------------------------------|
E|---------------------------------------------------------------------------|
 
pause...
 
e|--0-----0-------1-----3----|
B|---------------------------|
G|---------------------------|
D|---------------------------| x3
A|---------------------------|
E|---------------------------|
 
e|--1-------3-------1-----1-----3--------------------------------------------|
B|---------------------------------------------------------------------------|
G|---------------------------------------------------------------------------|
D|---------------------------------------------------------------------------|
A|---------------------------------------------------------------------------|
E|---------------------------------------------------------------------------|
 
 
[Verse 1]
 
    Just hear those sleigh bells jingling, ring-ting tingling too
e|--3---3---3---3------5------3---0------------------------------------------|
B|------------------------------------1------3----3----5---3---1-------------|
G|-------------------------------------------------------------------2-----0-|
D|---------------------------------------------------------------------------|
A|---------------------------------------------------------------------------|
E|---------------------------------------------------------------------------|
 
   Come on it's lovely weather for a sleigh ride together with you
e|--------------3------5------3---0------------------------------------------|
B|----------0-------------------------1------3----3----5---3---1-------------|
G|--0---2------------------------------------------------------------2-----0-|
D|---------------------------------------------------------------------------|
A|---------------------------------------------------------------------------|
E|---------------------------------------------------------------------------|
 
    Outside the snow is falling and friends are calling "Yoo hoo!"
e|--3---3---3---3------5------3---0------------------------------------------|
B|------------------------------------1------3----3----5---3---1-------------|
G|-------------------------------------------------------------------2-----0-|
D|---------------------------------------------------------------------------|
A|---------------------------------------------------------------------------|
E|---------------------------------------------------------------------------|
 
    Come on it's lovely weather for a sleigh ride together with you
e|--------------3------5------3---0------------------------------------------|
B|----------0-------------------------1------3----3----5---3---1-------------|
G|--0---2------------------------------------------------------------2-----0-|
D|---------------------------------------------------------------------------|
A|---------------------------------------------------------------------------|
E|---------------------------------------------------------------------------|
 
[Chorus]
 
    Ring-a-ling-a-linga ding-dong-ding
e|--3---3---3---3---3---3----5---5----7--------------------------------------|
B|---------------------------------------------------------------------------|
G|---------------------------------------------------------------------------|
D|---------------------------------------------------------------------------|
A|---------------------------------------------------------------------------|
E|---------------------------------------------------------------------------|
 
    Ring-a-ling-a-linga ding-dong-ding
e|--4---4---4---4---4---4---6----6----8--------------------------------------|
B|---------------------------------------------------------------------------|
G|---------------------------------------------------------------------------|
D|---------------------------------------------------------------------------|
A|---------------------------------------------------------------------------|
E|---------------------------------------------------------------------------|
 
    Ring-a-ling-a-linga ding-dong-ding
e|--4---4---4---4---4---4---6----6----8--------------------------------------|
B|---------------------------------------------------------------------------|
G|---------------------------------------------------------------------------|
D|---------------------------------------------------------------------------|
A|---------------------------------------------------------------------------|
E|---------------------------------------------------------------------------|
 
e|---2--------4--------------------4-----------------------------------------|
B|--------------------4-----4------------------------------------------------|
G|---------------------------------------------------------------------------|
D|---------------------------------------------------------------------------|
A|---------------------------------------------------------------------------|
E|---------------------------------------------------------------------------|
 
 
 
[Verse 2]
 
    Our cheeks are nice and rosy and comfy cozy are we
e|--3---3---3---3------5------3---0------------------------------------------|
B|------------------------------------1------3----3----5---3---1-------------|
G|-------------------------------------------------------------------2-----0-|
D|---------------------------------------------------------------------------|
A|---------------------------------------------------------------------------|
E|---------------------------------------------------------------------------|
 
    We're snuggled up together like two birds of a feather would be
e|--------------3------5------3---0------------------------------------------|
B|----------0-------------------------1------3----3----5---3---1-------------|
G|--0---2------------------------------------------------------------2-----0-|
D|---------------------------------------------------------------------------|
A|---------------------------------------------------------------------------|
E|---------------------------------------------------------------------------|
 
    Let's take that road before us and sing a chorus or two
e|--3---3---3---3------5------3---0------------------------------------------|
B|------------------------------------1------3----3----5---3---1-------------|
G|-------------------------------------------------------------------2-----0-|
D|---------------------------------------------------------------------------|
A|---------------------------------------------------------------------------|
E|---------------------------------------------------------------------------|
 
    Come on it's lovely weather for a sleigh ride together with you
e|--------------3------5------3---0------------------------------------------|
B|----------0-------------------------1------3----3----5---3---1-------------|
G|--0---2------------------------------------------------------------2-----0-|
D|---------------------------------------------------------------------------|
A|---------------------------------------------------------------------------|
E|---------------------------------------------------------------------------|
 
[Chorus]
 
    Ring-a-ling-a-linga ding-dong-ding
e|--3---3---3---3---3---3----5---5----7--------------------------------------|
B|---------------------------------------------------------------------------|
G|---------------------------------------------------------------------------|
D|---------------------------------------------------------------------------|
A|---------------------------------------------------------------------------|
E|---------------------------------------------------------------------------|
 
    Ring-a-ling-a-linga ding-dong-ding
e|--4---4---4---4---4---4---6----6----8--------------------------------------|
B|---------------------------------------------------------------------------|
G|---------------------------------------------------------------------------|
D|---------------------------------------------------------------------------|
A|---------------------------------------------------------------------------|
E|---------------------------------------------------------------------------|
 
    Ring-a-ling-a-linga ding-dong-ding
e|--4---4---4---4---4---4---6----6----8--------------------------------------|
B|---------------------------------------------------------------------------|
G|---------------------------------------------------------------------------|
D|---------------------------------------------------------------------------|
A|---------------------------------------------------------------------------|
E|---------------------------------------------------------------------------|
 
e|---2--------4--------------------4-----------------------------------------|
B|--------------------4-----4------------------------------------------------|
G|---------------------------------------------------------------------------|
D|---------------------------------------------------------------------------|
A|---------------------------------------------------------------------------|
E|---------------------------------------------------------------------------|
 
 
[Interlude]
 
e|--3---3---3---3------5------3---0------------------------------------------|
B|------------------------------------1------3----3----5---3---1-------------|
G|-------------------------------------------------------------------2-----0-|
D|---------------------------------------------------------------------------|
A|---------------------------------------------------------------------------|
E|---------------------------------------------------------------------------|
 
e|--------------3------5------3---0------------------------------------------|
B|----------0-------------------------1------3----3----5---3---1-------------|
G|--0---2------------------------------------------------------------2-----0-|
D|---------------------------------------------------------------------------|
A|---------------------------------------------------------------------------|
E|---------------------------------------------------------------------------|
 
e|--3---3---3---3------5------3---0------------------------------------------|
B|------------------------------------1------3----3----5---3---1-------------|
G|-------------------------------------------------------------------2-----0-|
D|---------------------------------------------------------------------------|
A|---------------------------------------------------------------------------|
E|---------------------------------------------------------------------------|
 
e|--------------3------5------3---0------------------------------------------|
B|----------0-------------------------1------3----3----5---3---1-------------|
G|--0---2--------------------------------------------------------------------|
D|---------------------------------------------------------------------------|
A|---------------------------------------------------------------------------|
E|---------------------------------------------------------------------------|
 
 
[Verse 3]
 
    Our cheeks are nice and rosy and comfy cozy are we
e|--3---3---3---3------5------3---0------------------------------------------|
B|------------------------------------1------3----3----5---3---1-------------|
G|-------------------------------------------------------------------2-----0-|
D|---------------------------------------------------------------------------|
A|---------------------------------------------------------------------------|
E|---------------------------------------------------------------------------|
 
    We're snuggled up together like two birds of a feather would be
e|--------------3------5------3---0------------------------------------------|
B|----------0-------------------------1------3----3----5---3---1-------------|
G|--0---2------------------------------------------------------------2-----0-|
D|---------------------------------------------------------------------------|
A|---------------------------------------------------------------------------|
E|---------------------------------------------------------------------------|
 
    Let's take that road before us and sing a chorus or two
e|--3---3---3---3------5------3---0------------------------------------------|
B|------------------------------------1------3----3----5---3---1-------------|
G|-------------------------------------------------------------------2-----0-|
D|---------------------------------------------------------------------------|
A|---------------------------------------------------------------------------|
E|---------------------------------------------------------------------------|
 
    Come on it's lovely weather for a sleigh ride together with you
e|--------------3------5------3---0------------------------------------------|
B|----------0-------------------------1------3----3----5---3---1-------------|
G|--0---2------------------------------------------------------------2-----0-|
D|---------------------------------------------------------------------------|
A|---------------------------------------------------------------------------|
E|---------------------------------------------------------------------------|
 
[Outro]
 
    Ring-a-ling-a-ling-a ding-dong-ding
e|--8----8----8----8----8----8----9----9---11--------------------------------|
B|---------------------------------------------------------------------------|
G|---------------------------------------------------------------------------|
D|---------------------------------------------------------------------------|
A|---------------------------------------------------------------------------|
E|---------------------------------------------------------------------------|
 
    Ring-a-ling-a-ling-a          ding     dong    ding
e|--8----8----8----8----8----8----10-------12------13------------------------|
B|---------------------------------------------------------------------------|
G|---------------------------------------------------------------------------|
D|---------------------------------------------------------------------------|
A|---------------------------------------------------------------------------|
E|---------------------------------------------------------------------------|
            
Submit corrections

↑ Back to top | Tablatures and chords for acoustic guitar and electric guitar, ukulele, drums are parodies/interpretations of the original songs. You may use it for private study, scholarship, research or language learning purposes only