» » »

Therion - Blood Of Kingu Bass

Artists:  A B C D E F G H I J K L M N O P Q R S T U V W X Y Z # 

Blood Of Kingu Bass

(ver. 1) Click to play this song!
Therion
 Rating:
4/5 (4 votes)

 Blood Of Kingu lessons Tabs too difficult? Try these video lessons and learn fast
 
                Band: Therion
Bassist: Johan Niemann
Tunning: Bass Down 1 1/2 Step (E,B,F#,C#)


MAIN RIFF:

E |------------------------------------------------------------|x5
B |------------------------------------------------------------|
F#|--------------------------------------------7--7-7-5--5-5---|
C#|-2--2-2-2-2-2-3--3-2-2-2-2-2-2--2-2-2-2-2-2---------------2-|

E |-----------------------------------------------------------|
B |-----------------------------------------------------------|
F#|--------------------------------------------7--7-7-5--5-5--|
C#|-2--2-2-2-2-2-3--3-2-2-2-2-2-2--2-2-2-2-2-2----------------|


INTERLUDE (x2):

E |-----------------------------------------------------------------|
B |-----------------------------------------------------------------|
F#|-4-444-444-444-444-444-445-5-4-2-4-444-444-444-4455555---77777---|
C#|-----------------------------------------------------------------|

E |-----------------------------------------------------------------|
B |---------------------------------------------------------55555---|
F#|-7-777-777-777-777-777-778-8-7-5-7-777-777-777-7788888-----------|
C#|-----------------------------------------------------------------|


ON THE GUITAR FILLS:

E |------------------------------------------------------------|x4
B |------------------------------------------------------------|
F#|--------------------------------------------7--7-7-5--5-5---|
C#|-2--2-2-2-2-2-3--3-2-2-2-2-2-2--2-2-2-2-2-2---------------2-|


VERSE:

E |------------------------------------------------------------|x3
B |------------------------------------------------------------|
F#|--------------------------------------------7--7-7-5--5-5---|
C#|-2--2-2-2-2-2-3--3-2-2-2-2-2-2--2-2-2-2-2-2---------------2-|

E |-----------------------------------------------------------|
B |-----------------------------------------------------------|
F#|--------------------------------------------7--7-7-5--5-5--|
C#|-2--2-2-2-2-2-3--3-2-2-2-2-2-2--2-2-2-2-2-2----------------|


Play:
- INTERLUDE


BREAK (x2):

E |------------------------------------------------------------------
B |------------------------------------------------------------------
F#|------------------------------------------------------------------
C#|-2-222-222-222-222-222-222-222-224-444-444-444-444-444-444-444-44-

E |-------------------------------------------------------------------|
B |-------------------------------------------------------------------|
F#|-------------------------------------------------------------------|
C#|-5--555-555-555-555-555-5-7-7-5-4-4-444-444-444-444-444-444-444-44-|


CHORUS (x2):

E |-----------------------------------------------------------------|
B |-----------------------------------------------------------------|
F#|-77777-77777-777-77777-77777-777---------------------------------|
C#|---------------------------------77777-77777-777-77777-77777-777-|


E |-----------------------------------------------------------------|
B |-----------------------------------------------------------------|
F#|-55555-55555-555-55555-55555-555---------------------------------|
C#|---------------------------------55555-55555-555-55555-55555-555-|


Play:
- VERSE
- INTERLUDE (x2)
- BREAK (x2)


CHORUS (WITH FILLS):

E |-----------------------------------------------------------------|
B |-----------------------------------------------------------------|
F#|-77777-77777-777-77777-77777-777---------------------------------|
C#|---------------------------------77777-77777-777-77777-777755775-|


E |-----------------------------------------------------------------|
B |-----------------------------------------------------------------|
F#|-55555-55555-555-55555-55555-555---------------------------------|
C#|---------------------------------55555-55555-555-55555-55555-555-|


E |------------------------------------------------------------------|
B |-------------------------/6-6-4-----------------------------------|
F#|-77777-77777-777-77777-77--------------------------------444-0022-|
C#|---------------------------------77777-77777-777-77777-77---------|


E |------------------------------------------------------------------|
B |-------------------------444---------------------/7---7-7---7-7-7-|
F#|-55555-55555-555-55555-55----775----------------------------------|
C#|---------------------------------55555-55555-555------------------|


DURING THE ORCHESTRAL PART AND THE GUITAR SOLO:

E |----------------------|x8
B |----------------------|
F#|---------4--3----3----|
C#|-2----2---------------|


CHOIR:

E |------------------|x4
B |------------------|
F#|--------4--3------|
C#|-2----------------|


DOBLE CHOIR:

E |-------------------------------|x4
B |-------------------------------|
F#|-------------4--3--3-3-3-3--3--|
C#|-2--2-2-2-2--------------------|


FINAL:

E |------------------------------------------------------------------------|
B |------------------------------------------------------------------------|
F#|------------------------------------------------------------------------|
C#|-2--2-2-2-2-------2--2-2-2-2-------2--2-2-2-2-------2--2-2-2-2-------2~-|


LEG:

/ : Slide Up
\ : Slide Down
~ : Let RIng
            
Submit corrections


        Blood Of Kingu lessons Hard to play? Try these video lessons and learn fast Blood Of Kingu lessons
        
↑ Back to top | Tablatures and chords for acoustic guitar and electric guitar, ukulele, drums are parodies/interpretations of the original songs. You may use it for private study, scholarship, research or language learning purposes only