» » »

Therion - Summer Night City Tabs

Artists:  A B C D E F G H I J K L M N O P Q R S T U V W X Y Z # 

Summer Night City Tabs

(ver. 1) Click to play this song!
Therion
 Rating:
4/5 (4 votes)

 Summer Night City lessons Tabs too difficult? Try these video lessons and learn fast
 
                Therion - Summer Night City
ABBA Cover

Tune down one whole step (D,G,C,F,A,D)

Riff A
|-----------------------|-------------------|
|-----------------------|-------------------|
|-----------------------|-----------2-4-5/8-|
|-----------------------|-----------0-2-3/6-|                   
|-2-2-2-2---------2-2---|-2-2-2-2-----------|
|-0-0-0-0---0-0-0-0-0---|-0-0-0-0-----------|

|-----------------------|-------------------|
|-----------------------|-------------------|
|-----------------------|-------------------|
|-----------------------|-------------------|
|-2-2-2-2---------2-2---|-2-2-2-2---------3-|
|-0-0-0-0---0-0-0-0-0---|-0-0-0-0---0-0-0-1-|

Riff B
|---------------|
|---------------|
|---------------| 
|-9---5---7---9-|
|-7---3---5---7-|
|---------------|

Riff C
|---------------------------------------|
|---------------------------------------|
|---------------------------------------|
|-9-9-9-9---7-7-7-7---5-5-5-5---2-2-2-2-|
|-7-7-7-7---5-5-5-5---3-3-3-3---0-0-0-0-| 
|---------------------------------------|

|---------------------------------------|
|---------------------------------------|
|---------------------------------------|
|-----------7-7-7-7---5-5-5-5---7-7-7-7-|
|-2-2-2-2---5-5-5-5---3-3-3-3---5-5-5-5-|
|-0-0-0-0-------------------------------|

Riff D
|-----------------|
|-----------------|
|-----------------|
|-----------------|
|---7---3---5---7-|
|---5---1---3---5-|

Riff E
|-------------------|---------------------|
|-------------------|---------------------|
|-------------------|---------------------|
|-------7-----------|---------------------|
|---3---5---5---7---|-7-7-7-7---------7-7-|
|---1-------3---5---|-5-5-5-5---5-5-5-5-5-|
            
Submit corrections


        Summer Night City lessons Hard to play? Try these video lessons and learn fast Summer Night City lessons
        
↑ Back to top | Tablatures and chords for acoustic guitar and electric guitar, ukulele, drums are parodies/interpretations of the original songs. You may use it for private study, scholarship, research or language learning purposes only