» » »

Therion - Seven Secrets Of The Seven Sphinx Tabs

Artists:  A B C D E F G H I J K L M N O P Q R S T U V W X Y Z # 

Seven Secrets Of The Seven Sphinx Tabs

(ver. 1) Click to play this song!
Therion
 Rating:
4/5 (4 votes)

 Seven Secrets Of The Seven Sphinx lessons Tabs too difficult? Try these video lessons and learn fast
 
                2/26/00

C# tuning

I didn't note palm-muting, but it's pretty obvious where they use it.


 Riff 1                                               
|---------------------------|
|---------------------------|
|---------------------------|
|--5-5--5--5--6--5--3--5----|
|--5-5--5--5--6--5--3--5----|
|--3-3--3--3--4--3--1--3----|
                                                     
  riff 2                                                              
|----------------------------------------------------|
|-11-9-88------------------11-9-88-------------------|
|---------88888888-7-888-----------77777777-5-777----|
|----------------------------------------------------|
|----------------------------------------------------|
|----------------------------------------------------|
                                                                    
 riff 3  This is just how I play it, it's hard to hear it            
|---------------------------------------------|
|---------------------------------------------|
|-5--5--55-6-66---6-5--5--5--55--8-88-6-------|
|---------------8-----------------------8-----|
|---------------------------------------------|
|---------------------------------------------|
                                                                    
 ending riff                                                       
|------------------------------------------|
|------------------------------------------|
|------------------------------------------|
|------------------------------------------|
|----------------3333------------1-0-1-----|
|-3333-3333-3333------3333-3333------------|
       
  A second guitar plays this at the beginnging of the ending riff                                                            
|------------|
|-8-8-8-8----|
|-7-7-7-7----|
|------------|
|------------|
|------------|
            
Submit corrections


        Seven Secrets Of The Seven Sphinx lessons Hard to play? Try these video lessons and learn fast Seven Secrets Of The Seven Sphinx lessons
        
↑ Back to top | Tablatures and chords for acoustic guitar and electric guitar, ukulele, drums are parodies/interpretations of the original songs. You may use it for private study, scholarship, research or language learning purposes only