» » »

Therion - Mark Of Cain Tabs

Artists:  A B C D E F G H I J K L M N O P Q R S T U V W X Y Z # 

Mark Of Cain Tabs

(ver. 1) Click to play this song!
Therion
 Rating:
4/5 (4 votes)

 Mark Of Cain lessons Tabs too difficult? Try these video lessons and learn fast
 
                Therion 
"Mark of Cain"
Crowning of Atlantis

 riff 1
|---------------------------------|------------------------|
|---------------------------------|------------------------|
|-2--0--5---7--5--2-0-2-----------|-2--0--5---7--5--2-0-2--|
|-2--0--5---7--5--2-0-2---3-5-6---|-2--0--5---7--5--2-0-2--|
|-------------------------3-5-6---|--------------------(0)-|
|---------------------------------|------------------------|

 riff 2
|-12---12-12-12\--------------------------------|
|-----------------13-12-10-12-13--12-10-12-13---|
|-----------------------------------------------|
|-----------------------------------------------|
|-----------------------------------------------|
|-----------------------------------------------|
 rhythm guitar here plays some A5's

Riff 1 2x
Riff 2 8x

 riff 3
|--------------------------|
|--------------------------|
|--------------------------|
|--7----5----3----7----5---|
|--7----5----3----7----5---|
|--5----3----1----5----3---|
With riff 3, the first three chords are played 16 times each, the last two
are played 8 times each. 

 riff 4  play 3x                ending
|-12-----------15-13-12-----|----------------|
|----13-12-13-----------13--|-13--12-----12--|
|---------------------------|---------14-----|
|---------------------------|----------------|
|---------------------------|----------------|
|---------------------------|----------------|

 riff 5                              riff 5A
|---------------------------------|---------------------------------------|
|---------------------------------|--5----5\--0---0--1---5---8-6----------|
|--2-------------5-5-5-5-5-5-5-5--|---------------------------------------|
|--2----5---3----5-5-5-5-5-5-5-5--|---------------------------------------|
|--0----5---3----3-3-3-3-3-3-3-3--|---------------------------------------|
|-------3---1---------------------|---------------------------------------|
Riffs 5 and 5A are played together, and then together with riff 4 also.

riff 6
|------------------------------------|----------------------------|
|------------------------------------|----------------------------|
|-2-----5---7--5--2-----2------------|-2-----5---7--5--2-----2----|
|-2--5--5---7--5--2--5--2---3--5--6--|-2--5--5---7--5--2--5--2----|
|-0--5--3---5--3--0--5--0---3--5--6--|-0--5--3---5--3--0--5--0----|
|----3---------------3------1--3--4--|----3---------------3-------|

Riff 3 2x
Riff 4 4x (together with 5 and 5A)
Riff 5 4x (together with 5A)
Riff 1 2x
Riff 2 4x
Riff 3 2x
Riff 4 4x (together with 5 and 5A)
Riff 1 2x
Riff 6 4x
End the song with a bunch of A5's.

Lyrics

Cain, fistborn son of Adam
You killed your brother Abel.
Now bear a mark of God in your eyes
Pain is (the) sing of your symbol
And you'll be borne down by (the) load.
You will walk forever to live and let die.
Life is eternal for Cain
Bright shine the crime from his mark
Some secret's known by his name
He taught man handle Gods spark
Let the hegoat
Bear all the old crimes
Walk with him
To distant east
Ride your horse into the desert of Set
And meet him, your master Azazel.
            
Submit corrections


        Mark Of Cain lessons Hard to play? Try these video lessons and learn fast Mark Of Cain lessons
        
↑ Back to top | Tablatures and chords for acoustic guitar and electric guitar, ukulele, drums are parodies/interpretations of the original songs. You may use it for private study, scholarship, research or language learning purposes only