» » »

Therion - Ljusalfheim Tabs

Artists:  A B C D E F G H I J K L M N O P Q R S T U V W X Y Z # 

Ljusalfheim Tabs

(ver. 1) Click to play this song!
Therion
 Rating:
4/5 (4 votes)

 Ljusalfheim lessons Tabs too difficult? Try these video lessons and learn fast
 
                THERION
"Ljusalfheim"
SECRET OF THE RUNES



INTRO:
ACOUSTIC:
    Am      E      F  G     C       Am      E       B       E
|---0---|---0---|--1--3-|---0---|---0---|---0---|---2---|---0---|
|---1---|---0---|--1--3-|---1---|---1---|---0---|---4---|---0---|
|---2---|---1---|--2--4-|---0---|---2---|---1---|---4---|---1---|FIG1
|---2---|---2---|--3--5-|---2---|---2---|---2---|---4---|---2---|X1
|---0---|---2---|--3--5-|---3---|---0---|---2---|---2---|---2---|
|-------|---0---|--1--3-|-------|-------|---0---|-------|---0---|





VERSE1:
|DISTOR GUITARS:
|----------------------------------------------------------|
|----------------------------------------------------------|FIG2
|----------------------------------------------------------|X2
|--2--------------------5------2-------------4-------------|
|--0------2------3---5--3------0------2------2------2------|
|---------0------1---3----------------0-------------0------|





CHORUS:
|DISTOR GUITAR1:
|---------------------------------------------------------------------------6-9^7^6-7~~--|
|--/6----8--6--5----3--5----6--5--3-----------/6----8--6--5----5-8^7^5-7~~---------------|
|------------------------------------2~~~~-----------------------------------------------|
|----------------------------------------------------------------------------------------|--|
|----------------------------------------------------------------------------------------|  |
|----------------------------------------------------------------------------------------|  |
|DISTOR GUITAR2:									    |
|---------------------------------------------------------------------------6-9^7^6-7~~--|  |
|--------------------------------------------------------------5-8^7^5-7~~---------------|  |
|----------------------------------------------------------------------------------------|--|FIG3
|--/3----5--3--2----0--2----3--2--0-----------/3----5--3--2------------------------------|  |X1
|----------------------------------------------------------------------------------------|  |
|-----------------------------------/5---------------------------------------------------|  |
|ACUSTIC:										    |
|   Dm      C       E       Am      Dm      C       F#      B 				    |
|---1---|---0---|---0---|---0---|---1---|---0---|---2---|---2---|			    |	
|---3---|---1---|---0---|---1---|---3---|---1---|---2---|---4---|			    |
|---2---|---0---|---1---|---2---|---2---|---0---|---3---|---4---|---------------------------|
|---0---|---2---|---2---|---2---|---0---|---2---|---4---|---4---|
|-------|---3---|---2---|---0---|-------|---3---|---4---|---2---|
|-------|-------|---0---|-------|-------|-------|---2---|-------|





VERSE2:
-FIG1 X1
-FIG2 X2




CHORUS:
-FIG3 X1
-Then...
|DISTOR GUITAR1:
|------------------------------------5~~~-----------------------------------6-9^7^6-7~~--|
|--/6----8--6--5-------5----6--5--6-----------/6----8--6--5----5-8^7^5-7~~---------------|
|-------------------5--------------------------------------------------------------------|
|----------------------------------------------------------------------------------------|
|----------------------------------------------------------------------------------------|
|----------------------------------------------------------------------------------------|
|DISTOR GUITAR2:
|---------------------------------------------------------------------------6-9^7^6-7~~--|
|--------------------------------------------------------------5-8^7^5-7~~---------------|
|----------------------------------------------------------------------------------------|
|--/3----5--3--2----0--2----3--2--0-----------/3----5--3--2------------------------------|
|----------------------------------------------------------------------------------------|
|------------------------------------/5--------------------------------------------------|
|ACUSTIC:
|   Dm      C       E       Am      Dm      C       F#      B 	
|---1---|---0---|---0---|---0---|---1---|---0---|---2---|---2---|
|---3---|---1---|---0---|---1---|---3---|---1---|---2---|---4---|
|---2---|---0---|---1---|---2---|---2---|---0---|---3---|---4---|
|---0---|---2---|---2---|---2---|---0---|---2---|---4---|---4---|
|-------|---3---|---2---|---0---|-------|---3---|---4---|---2---|
|-------|-------|---0---|-------|-------|-------|---2---|-------|




INTERLUDE:
|DISTOR GUITAR1:
|-------------------------------------------------------------------|
|-------------------------------------------------------------------|
|-------------------------------------------------------------------|
|------------------3-3-3-3-5-3-2-0-----------------2-2-2-2-5-3-2-0--|
|--3-3-3-3-2-3-3-3-----------------2-2-2-2-0-2-2-2------------------|
|-------------------------------------------------------------------|
|DISTOR GUITAR2: (Hear the rhythm, it has some PM)
|--0---------------1---------------3---------------0----------------|
|--1---------------3---------------3---------------1----------------|
|--2---------------2---------------0---------------0----------------|
|--2---------------0---------------0---------------2----------------|
|--0-------------------------------2---------------3----------------|
|----------------------------------3--------------------------------|

|GUITAR1:
|----------------------------------------------------------------------------------------------|
|----------------------------------------------------------------------------------------------|
|----------------------------------------------------------------------------------------------|
|------------------3-3-3-3-5-3-2-0----2-2-2-2-2--3---5--3-2--0-2----2-2-2-2--3---5--3-2--0--2--|
|--3-3-3-3-2-3-3-3-----------------------------------------------------------------------------|
|----------------------------------------------------------------------------------------------|
|GUITAR2:
|--0---------------1--------------(0)----------------------------------------------------------|
|--1---------------3--------------(0)------------1---3--1--------------------1---3--1----------|
|--2---------------2--------------(1)-4-4-4-4-4-----------4--2-4----4-4-4-4-----------4--2--4--|
|--2---------------0--------------(2)----------------------------------------------------------|
|--0------------------------------(2)----------------------------------------------------------|
|---------------------------------(0)----------------------------------------------------------|

-Then...
|GUITAR3: acoustic (Hear the rhythm)
|---0---|---1---|---3---|---0---|---0---|---1---|---0---|---0---|---0---|---0---|
|---1---|---3---|---3---|---1---|---1---|---3---|---0---|---0---|---0---|---0---|
|---2---|---2---|---0---|---0---|---2---|---2---|---1---|---1---|---1---|---1---|
|---2---|---0---|---0---|---2---|---2---|---0---|---2---|---2---|---2---|---2---|
|---0---|-------|---2---|---3---|---0---|-------|---2---|---2---|---2---|---2---|
|-------|-------|---3---|-------|-------|-------|---0---|---0---|---0---|---0---|





FINAL CHORUS:
-FIG3 X1
-Then...
|DISTOR GUITAR1:
|-----------------------------------/5~~~------------------------------------------------|
|--/6----8--6--5-------5----6--5--6-----------/6----8--6--5----5--3--1----3--1-----------|
|-------------------5-----------------------------------------------------------2--------|
|----------------------------------------------------------------------------------------|
|----------------------------------------------------------------------------------------|
|----------------------------------------------------------------------------------------|
|DISTOR GUITAR2:
|----------------------------------------------------------------------------------------|
|----------------------------------------------------------------------------------------|
|----------------------------------------------------------------------------------------|
|--/3----5--3--2----0--2----3--2--0-----------/3----5--3--2----2--0----------------------|
|--------------------------------------------------------------------3----5--3--0--------|
|-----------------------------------/5---------------------------------------------------|
|ACUSTIC:
|   Dm      C       E       Am      Dm      C       Am      F 	
|---1---|---0---|---0---|---0---|---1---|---0---|---0---|---1---|
|---3---|---1---|---0---|---1---|---3---|---1---|---1---|---1---|
|---2---|---0---|---1---|---2---|---2---|---0---|---2---|---2---|
|---0---|---2---|---2---|---2---|---0---|---2---|---2---|---3---|
|-------|---3---|---2---|---0---|-------|---3---|---0---|---3---|
|-------|-------|---0---|-------|-------|-------|-------|---1---|





OUTRO SOLO:
During solo, rhythm plays:
|---0---|---1---|---3---|---0---|---0---|---1---|---0---|---0---|---0---|---0---|
|---1---|---3---|---3---|---1---|---1---|---3---|---0---|---0---|---0---|---0---|
|---2---|---2---|---0---|---0---|---2---|---2---|---1---|---1---|---1---|---1---|
|---2---|---0---|---0---|---2---|---2---|---0---|---2---|---2---|---2---|---2---|X2
|---0---|-------|---2---|---3---|---0---|-------|---2---|---2---|---2---|---2---|
|-------|-------|---3---|-------|-------|-------|---0---|---0---|---0---|---0---|

I'm working on the solo. Help on this

The lyrics:
Solar glare from Lord Frej,
the Shining One,
in Ljusalfheim he's King of elves.

High above the rainbow
and in the tarn deep in the wood
you'll find elves.

Follow their light
it's brighter than sun
it makes you fly...

In the realm of Alfheim
you never know what you have seen.
A pale mirage?

Beauty make you sunblind
it fills your mind
you fly away and lose your hug.

Fly with their wings
they make you feel so free
but you may fall...

Flee from their light
they'll maybe drag you down
or make you fly...
            
Submit corrections


        Ljusalfheim lessons Hard to play? Try these video lessons and learn fast Ljusalfheim lessons
        
↑ Back to top | Tablatures and chords for acoustic guitar and electric guitar, ukulele, drums are parodies/interpretations of the original songs. You may use it for private study, scholarship, research or language learning purposes only