» » »

Therion - Fly To The Rainbow Tabs

Artists:  A B C D E F G H I J K L M N O P Q R S T U V W X Y Z # 

Fly To The Rainbow Tabs

(ver. 1) Click to play this song!
Therion
 Rating:
4/5 (4 votes)

 Fly To The Rainbow lessons Tabs too difficult? Try these video lessons and learn fast
 
                
4/4 rythm

E tuning (I guess)

h    - hammer on
p    - pull off
/    - slide
pm   - palm muting
.    - mute points
~    - vibrato/let ring
b(x) - bend to x
r(x) - release back to x
br   - bend 1/2 and release

E|----------------|----------------|----------------|----------------|
B|----------------|----------------|----------------|----------------|
G|----------------|----------------|----------------|----------------|
D|----------------|----------------|----------------|----------------|
A|----------------|----------------|----------------|----------------|
E|----------------|----------------|----------------|----------------|



E|----------------|----------------|----------------|----------------|--|
B|-8~-------------|-7~-------------|-5~-------------|-4~-------------|5-|
G|----------------|----------------|----------------|----------------|--|
D|----------------|----------------|----------------|----------------|--|
A|----------------|----------------|----------------|----------------|--|
E|----------------|----------------|----------------|----------------|--|
 |gt 2                                                               | 
E|----------------|----------------|----------------|----------------|--|
B|-12~------------|-10~------------|-8~-------------|-7~-------------|8-|
G|----------------|----------------|----------------|----------------|--|
D|----------------|----------------|----------------|----------------|--|
A|----------------|----------------|----------------|----------------|--|
E|----------------|----------------|----------------|----------------|--|

                           |-fast-|
E|----------------|----------------|----------------|----------------|=|
B|----------5--7--|-8--10--10p8p7p5|-7~-------7-----|-7~-------------| |
G|----------------|----------------|----------------|----------------| |
D|----------------|----------------|----------------|----------------| |
A|----------------|----------------|----------------|----------------| |
E|----------------|----------------|----------------|----------------| |
 |gt 2                   |--fast--|                                  | |
E|----------------|----------------|----------------|----------------| |
B|----------8--10-|12-15-13p12p10p8|-10~------10----|-10~------------| |
G|----------------|----------------|----------------|----------------| |
D|----------------|----------------|----------------|----------------| |
A|----------------|----------------|----------------|----------------| |
E|----------------|----------------|----------------|----------------| |
                                                                       | 4X
                                                                       |
E|----------------|----------------|----------------|----------------| |
B|-3---5---7---8--|-7p5p3----------|-3/5~-----------|-(5~)-----------| |
G|----------------|----------------|----------------|----------------| |
D|----------------|----------------|----------------|----------------| |
A|----------------|----------------|----------------|----------------| |
E|----------------|----------------|----------------|----------------| |
 |gt 2                                                               | |
E|----------------|----------------|----------------|----------------| |
B|-7---8---10--12-|-10p8p7---------|-7/8~-----------|-(8~)-----------| |
G|----------------|----------------|----------------|----------------| |
D|----------------|----------------|----------------|----------------| |
A|----------------|----------------|----------------|----------------| |
E|----------------|----------------|----------------|----------------|=|

*I have only an acoustic guitar, but when you use an electric one,
 it is much more easy to play all that above on the G string, just
 push everything 4 frets higher, just like this:

                           |-fast-|
E|----------------|----------------|----------------|----------------|=|
B|----------------|----------------|----------------|----------------| |
G|----------9--11-|12-14-14p12p11p9|-11~------11~---|-11~------------| |
D|----------------|----------------|----------------|----------------| |
A|----------------|----------------|----------------|----------------| |
E|----------------|----------------|----------------|----------------| |
 |gt 2                   |--fast--|                                  | |
E|----------------|----------------|----------------|----------------| |
B|----------------|----------------|----------------|----------------| |
G|----------12-14-|16-19-17p16p14p12-14~------14----|-14~------------| |
D|----------------|----------------|----------------|----------------| |
A|----------------|----------------|----------------|----------------| |
E|----------------|----------------|----------------|----------------| |
                                                                       | 4X
                                                                       |
E|----------------|----------------|----------------|----------------| |
B|----------------|----------------|----------------|----------------| |
G|-7---9---11--12-|-11p9p7---------|-7/9~-----------|-(9~)-----------| |
D|----------------|----------------|----------------|----------------| |
A|----------------|----------------|----------------|----------------| |
E|----------------|----------------|----------------|----------------| |
 |gt 2                                                               | |
E|----------------|----------------|----------------|----------------| |
B|----------------|----------------|----------------|----------------| |
G|-11--12--14--16-|-14p12p11-------|-11/12~---------|-(12~)----------| |
D|----------------|----------------|----------------|----------------| |
A|----------------|----------------|----------------|----------------| |
E|----------------|----------------|----------------|----------------|=|


00:28

E|----------------|----------------|----------------|----------------|
B|-(5~)-----------|----------------|----------------|----------------|
G|*(9~)*----------|----------------|----------------|----------------|
D|----------------|----------------|----------------|----------------|
A|----------------|----------------|----------------|----------------|
E|----------------|----------------|----------------|----------------|
 |gt 2                                                               |
E|---------0------|---------2------|---------2------|----------------|
B|-----0-----0---0|-----3-----3---3|-----3-----3---3|----------------|
G|---0---0-----0--|---2---2-----2--|---2---2-----2--|----------------|
D|-2--------------|-0--------------|-0--------------|-5~---4---5---4-|
A|----------------|----------------|----------------|-5~---4---5---4-|
E|----------------|----------------|----------------|-3~---2---3---2-|
                                                      (both guitars)

E|----------------|---------2------|---------2------|---------0------|
B|----------------|-----3-----3---3|-----3-----3---3|-----0-----0---0|
G|----------------|---2---2-----2--|---2---2-----2--|---0---0-----0--|
D|-2~-------------|-0--------------|-0--------------|-2--------------|
A|-2~-------------|----------------|----------------|----------------|
E|-0~-------------|----------------|----------------|----------------|


E|---------0------|---------2------|---------2------|----------------|
B|-----0-----0---0|-----3-----3---3|-----3-----3---3|----------------|
G|---0---0-----0--|---2---2-----2--|---2---2-----2--|----------------|
D|-2--------------|-0--------------|-0--------------|-5~---4---5---4-|
A|----------------|----------------|----------------|-5~---4---5---4-|
E|----------------|----------------|----------------|-3~---2---3---2-|
                                                      (both guitars)

E|----------------|---------2------|---------2------|---------0------|
B|----------------|-----3-----3---3|-----3-----3---3|-----0-----0---0|
G|----------------|---2---2-----2--|---2---2-----2--|---0---0-----0--|
D|-2~-------------|-0--------------|-0--------------|-2--------------|
A|-2~-------------|----------------|----------------|----------------|
E|-0~-------------|----------------|----------------|----------------|

00:55

(oh man...:P there are two possibilites, either one guitar plays
 higher and one lower all the time, or they play some kind of X style,
 what means that one goes up-down and the second down-up, both 
 sounds right, I made the tab for the X style)

E|----------------|----------------|----------------|----------------|=|
B|-12~-----10--8--|-10~------8--7~-|-10~-----8---7~-|-7b(8)----r7-5~-| |
G|----------------|----------------|----------------|----------------| |
D|----------------|----------------|----------------|----------------| |
A|----------------|----------------|----------------|----------------| |
E|----------------|----------------|----------------|----------------| |
 |gt 2                                                               | |
E|-0~------2---3--|-5~-------3--5~-|-12~-----10--7--|-6b(7)--r6-5-3--| |
B|----------------|----------------|----------------|----------------| |
G|----------------|----------------|----------------|----------------| |
D|----------------|----------------|----------------|----------------| |
A|----------------|----------------|----------------|----------------| |
E|----------------|----------------|----------------|----------------| |
                                                                       |
now they switch their positions:                                       | 2X     
                                                                    *  |
E|-0~------2---3--|-5~-------3--5~-|-12~-----10--7--|-12~---12--12~-/| |
B|----------------|----------------|----------------|----------------| |
G|----------------|----------------|----------------|----------------| |
D|----------------|----------------|----------------|----------------| |
A|----------------|----------------|----------------|----------------| |
E|----------------|----------------|----------------|----------------| |
 |gt 2                                                               | |
E|----------------|----------------|----------------|----------------| |
B|-12~-----10--8--|-10~------8--7~-|-10~-----8---7~-|-8~-------7--5~-| |
G|----------------|----------------|----------------|----------------| |
D|----------------|----------------|----------------|----------------| |
A|----------------|----------------|----------------|----------------| |
E|----------------|----------------|----------------|----------------|=|
 *notice the slide only first time!


01:20


E|-(12)-----------|----------------|----------------|----------------|
B|----------------|----------------|----------------|----------------|
G|----------------|----------------|----------------|----------------|
D|----------------|----------------|----------------|----------------|
A|----------------|----------------|----------------|----------------|
E|----------------|----------------|----------------|----------------|
 |gt 2    Emi          D               D              G   A#   G  A# |
E|---------0------|---------2------|---------2------|----------------|
B|-----0-----0---0|-----3-----3---3|-----3-----3---3|**--------------|
G|---0---0-----0--|---2---2-----2--|---2---2-----2--|----------------|
D|-2--------------|-0--------------|-0--------------|-5~---4---5---4-|
A|----------------|----------------|----------------|-5~---4---5---4-|
E|----------------|----------------|----------------|-3~---2---3---2-|
                                                      (both guitars)
   Emi                 D               D              Emi
E|----------------|---------2------|---------2------|---------0------|
B|----------------|-----3-----3---3|-----3-----3---3|-----0-----0---0|
G|----------------|---2---2-----2--|---2---2-----2--|---0---0-----0--|
D|-2~-------------|-0--------------|-0--------------|-2--------------|
A|-2~-------------|----------------|----------------|----------------|
E|-0~-------------|----------------|----------------|----------------|

   Emi                 D               D              G   A#   G  A#
E|---------0------|---------2------|---------2------|----------------|
B|-----0-----0---0|-----3-----3---3|-----3-----3---3|----------------|
G|---0---0-----0--|---2---2-----2--|---2---2-----2--|----------------|
D|-2--------------|-0--------------|-0--------------|-5~---4---5---4-|
A|----------------|----------------|----------------|-5~---4---5---4-|
E|----------------|----------------|----------------|-3~---2---3---2-|
                                                      (both guitars)
   Emi                 D               D              Emi
E|----------------|---------2------|---------2------|---------0------|
B|----------------|-----3-----3---3|-----3-----3---3|-----0-----0---0|
G|----------------|---2---2-----2--|---2---2-----2--|---0---0-----0--|
D|-2~-------------|-0--------------|-0--------------|-2--------------|
A|-2~-------------|----------------|----------------|----------------|
E|-0~-------------|----------------|----------------|----------------|

** I think that the other guitar lightly begins strumming the chords 
   G, A#, G, A#, and then also Emi, D, D, Emi...

1:47

E|----------------|----------------|----------------|----------------|=| 
B|-12~-----10--8--|-10~------8--7~-|-10~-----8---7~-|-7b(8)----r7-5~-| |
G|----------------|----------------|----------------|----------------| |
D|----------------|----------------|----------------|----------------| |
A|----------------|----------------|----------------|----------------| |
E|----------------|----------------|----------------|----------------| |
 |gt 2                                                               | |
E|-0~------2---3--|-5~-------3--5~-|-12~-----10--7--|-6b(7)--r6-5-3--| |
B|----------------|----------------|----------------|----------------| |
G|----------------|----------------|----------------|----------------| |
D|----------------|----------------|----------------|----------------| |
A|----------------|----------------|----------------|----------------| |
E|----------------|----------------|----------------|----------------| |
                                                                       | 2X     
switchin'...                                                           |         
                                                                       |            
E|-0~------2---3--|-5~-------3--5~-|-12~-----10--7--|-12~---12--12~-/| |
B|----------------|----------------|----------------|----------------| |
G|----------------|----------------|----------------|----------------| |
D|----------------|----------------|----------------|----------------| |
A|----------------|----------------|----------------|----------------| |
E|----------------|----------------|----------------|----------------| |
 |gt 2                                                               | |
E|----------------|----------------|----------------|----------------| |
B|-12~-----10--8--|-10~------8--7~-|-10~-----8---7~-|-8~-------7--5~-| |
G|----------------|----------------|----------------|----------------| |
D|----------------|----------------|----------------|----------------| |
A|----------------|----------------|----------------|----------------| |
E|----------------|----------------|----------------|----------------|=|

2:12


E|-(12)-----------|----------------|----------------|----------------|
B|----------------|----------------|----------------|----------------|
G|----------------|----------------|----------------|----------------|
D|----------------|----------------|----------------|----------------|
A|----------------|----------------|----------------|----------------|
E|----------------|----------------|----------------|----------------|
 |gt 2    Emi          D               D              G   A#   G  A# |
E|---------0------|---------2------|---------2------|----------------|
B|-----0-----0---0|-----3-----3---3|-----3-----3---3|**--------------|
G|---0---0-----0--|---2---2-----2--|---2---2-----2--|----------------|
D|-2--------------|-0--------------|-0--------------|-5~---4---5---4-|
A|----------------|----------------|----------------|-5~---4---5---4-|
E|----------------|----------------|----------------|-3~---2---3---2-|
                                                      (both guitars)
   Emi                 D               D              Emi
E|----------------|---------2------|---------2------|---------0------|
B|----------------|-----3-----3---3|-----3-----3---3|-----0-----0---0|
G|----------------|---2---2-----2--|---2---2-----2--|---0---0-----0--|
D|-2~-------------|-0--------------|-0--------------|-2--------------|
A|-2~-------------|----------------|----------------|----------------|
E|-0~-------------|----------------|----------------|----------------|

   Emi                 D               D              G   A#   G  A#
E|---------0------|---------2------|---------2------|----------------|
B|-----0-----0---0|-----3-----3---3|-----3-----3---3|----------------|
G|---0---0-----0--|---2---2-----2--|---2---2-----2--|----------------|
D|-2--------------|-0--------------|-0--------------|-5~---4---5---4-|
A|----------------|----------------|----------------|-5~---4---5---4-|
E|----------------|----------------|----------------|-3~---2---3---2-|
                                                      (both guitars)
   Emi                 D               D              Emi
E|----------------|---------2------|---------2------|----------------|
B|----------------|-----3-----3---3|-----3-----3---3|----------------|
G|----------------|---2---2-----2--|---2---2-----2--|----------------|
D|-2~-------------|-0--------------|-0--------------|-2~-------------|
A|-2~-------------|----------------|----------------|-2~-------------|
E|-0~-------------|----------------|----------------|-0~-------------|

2:38

E|----------------|----------------|----------------|----------------|=| 
B|----------------|----------------|----------------|----------------| |
G|----------------|-4~-------------|-(4)------------|-2~-------------| |
D|-(2)------------|-4~-------------|-(4)------------|-2~-------------| |
A|-(2)------------|-2~-------------|-(2)------------|-0~-------------| |
E|-(0)------------|----------------|----------------|----------------| |
                                                                       | 4X
E|----------------|----------------|----------------|----------------| |
B|----------------|----------------|----------------|----------------| |
G|-(2)------------|----------------|----------------|----------------| |
D|-(2)------------|-2--------------|-(2)------------|-2~-------------| |
A|-(0)------------|-2--------------|-(2)------------|-2~-------------| |
E|----------------|-0--------------|-(0)------------|-0~-------------|=|

03:31

(second guitar plays some background according to chords:)

   Emi                     Bsus2                 Am               Emi
E|-----------------|--------------------|---------------------|--------0~~-|
B|--5h7h8~~~-------|7h8p7p5-8-7---------|---------------------|5-----------|
G|-----------------|-----------7-6-7~~~-|6h7p6-/4-7-6-(4)-5~~~|-5------4~~-|
D|-----------------|--------------------|---------------------|--7---------|
A|-----------------|--------------------|---------------------|---7--7-----|
E|-----------------|--------------------|---------------------|----7-------|

   Emi           Dsus2 Bmi                        Am                Emi
E|-----------------|5---2~~~~~~---------|0------------------0-|--------0~~-|
B|--5h7h8~~~-------|5---3~~~~~~---------|--2h3p2---2---1~~~~--|1-----------|
G|-----------------|7---4p2h4~~---------|--------2--(2)-------|-2------4~~-|
D|-----------------|--------------------|---------------------|--2---5-----|
A|-----------------|--------------------|---------------------|---0--------|
E|-----------------|--------------------|---------------------|----0-------|

3:57

(and now, ladies and gentlemen, sorry for mistakes, I've never
 played/had/seen such wah-effect...)

E|----------------|-0~-------0-----|-2~-------------|----------------|
B|-0~-------------|----------------|----------------|-5~-------------|
G|----------------|----------------|----------------|----------------|
D|----------------|----------------|----------------|----------------|
A|----------------|----------------|----------------|----------------|
E|----------------|----------------|----------------|----------------|

E|----------------|---2-----0~-----|----12---12-10--|----------------|
B|-5-5/0~---------|-0~--0----------|-12----12-------|-13-12~---------|
G|----------------|----------------|----------------|----------------|
D|----------------|----------------|----------------|----------------|
A|----------------|----------------|----------------|----------------|
E|----------------|----------------|----------------|----------------|

E|----12---12-15--|-14-12~---------|-5br~--3-5-5b(6)|-r5-3-----------|
B|-12----12-------|----------------|----------------|------5~----0---|
G|----------------|----------------|----------------|----------------|
D|----------------|----------------|----------------|--------------2~|
A|----------------|----------------|----------------|----------------|
E|----------------|----------------|----------------|----------------|


04:25

chords are Emi, Bsus2, Am, Emi

06:07

E|----------------|----------------|-5--------------|-3p2h3h4-4~~----|
B|---------3~-5~--|-8----7---5~----|-------5~~~-----|----------------|
G|-4~-------------|----------------|----------------|----------------|
D|----------------|----------------|----------------|----------------|
A|----------------|----------------|----------------|----------------|
E|----------------|----------------|----------------|----------------|


E|-3p2h3~---------|7~--8~--10~--12~|-15b(17)~r15--15|12-15br-12-10-12|
B|----------------|----------------|----------------|----------------|
G|----------------|----------------|----------------|----------------|
D|----------------|----------------|----------------|----------------|
A|----------------|----------------|----------------|----------------|
E|----------------|----------------|----------------|----------------|


06:25

E|-/12~-----------|-0--2--3---2~---|----------------|-2--3--5~-------|
B|----------------|----------------|-0~-------------|----------------|
G|----------------|----------------|----------------|----------------|
D|----------------|----------------|----------------|----------------|
A|----------------|----------------|----------------|----------------|
E|----------------|----------------|----------------|----------------|
 |gt 2                                                               |
E|----------------|----------------|----------------|----------------|
B|----------------|----------------|----------------|----------------|
G|----------------|----------------|----------------|-------2~-------|
D|-2~-------------|-2--4--5---4----|----------------|-4--5-----------|
A|----------------|----------------|-2~-------------|----------------|
E|----------------|----------------|----------------|----------------|


E|-5-----3----2---|-3~~~-----------|
B|----------------|----------------|
G|----------------|----------------|
D|----------------|----------------|
A|----------------|----------------|
E|----------------|----------------|
 |gt 2                             |
E|----------------|----------------|
B|----------------|----------------|
G|-2-----5----4---|-5~~~-----------|
D|----------------|----------------|
A|----------------|----------------|
E|----------------|----------------|


06:38

E|-0~-------------|-0--2--3---2~---|----------------|-2--3--5~-------|=| 
B|----------------|----------------|-0~-------------|----------------| |
G|----------------|----------------|----------------|----------------| |
D|----------------|----------------|----------------|----------------| |
A|----------------|----------------|----------------|----------------| |
E|----------------|----------------|----------------|----------------| |
 |gt 2                                                               | |
E|----------------|----------------|----------------|----------------| |
B|----------------|----------------|----------------|----------------| |
G|----------------|----------------|----------------|-------2~-------| |
D|-2~-------------|-2--4--5---4----|----------------|-4--5-----------| |
A|----------------|----------------|-2~-------------|----------------| |
E|----------------|----------------|----------------|----------------| |
                                                                       |  
                                              _________________________|   
E|-5-----3----2---|-3~~~-----------|          |
B|----------------|----------------|          | 
G|----------------|----------------|          |play until fade out (7x)
D|----------------|----------------|          | 
A|----------------|----------------|          |
E|----------------|----------------|          |
 |gt 2                             |          |
E|----------------|----------------|          | 
B|----------------|----------------|          |
G|-2-----5----4---|-5~~~-----------|          |
D|----------------|----------------|          |
A|----------------|----------------|          |
E|----------------|----------------|==========|  

end.

if you find mistakes, or if you have another
ide for the part starting 0:28, drop me a line.
            
Submit corrections


        Fly To The Rainbow lessons Hard to play? Try these video lessons and learn fast Fly To The Rainbow lessons
        
↑ Back to top | Tablatures and chords for acoustic guitar and electric guitar, ukulele, drums are parodies/interpretations of the original songs. You may use it for private study, scholarship, research or language learning purposes only