» » »

Therion - Crowning Of Atlantis Tabs

Artists:  A B C D E F G H I J K L M N O P Q R S T U V W X Y Z # 

Crowning Of Atlantis Tabs

(ver. 1) Click to play this song!
Therion
 Rating:
4/5 (4 votes)

 Crowning Of Atlantis lessons Tabs too difficult? Try these video lessons and learn fast
 
                The Crowning Of Atlantis                             


Guitar 1



                                                                     
E||------|-----------------------------|----------------------------|
B||------|-----------------------------|----------------------------|
G||------|-----------------------------|----------------------------|
D||------|-----------------------------|----------------------0--2--|
A||------|--0--0-0-0--0-0-0--0-0-1--0--|----0-0-0--0-0-0--0-0-------|
E||------|-----------------------------|----------------------------|


                                                      
----------------------------|------------------------|
----------------------------|------------------------|
----------------------------|------------------------|
----------------------------|--3----2--0--2----0-----|
----0-0-0--0-0-0--0-0----0--|---------------------4--|
----------------------3-----|------------------------|


                                                           
-----------------------------|----------------------------|
-----------------------------|----------------------------|
-----------------------------|----------------------------|
-----------------------------|----------------------0--2--|
--0--0-0-0--0-0-0--0-0-1--0--|----0-0-0--0-0-0--0-0-------|
-----------------------------|----------------------------|


                                                      
----------------------------|------------------------|
----------------------------|------------------------|
----------------------------|------------------------|
----------------------------|--3----2--0--2----0-----|
----0-0-0--0-0-0--0-0----0--|---------------------4--|
----------------------3-----|------------------------|


                                                              
------------------------------|------------------------------|
------------------------------|------------------------------|
------------------------------|------------------------------|
------------------------------|------------------------------|
--0--0-0-0--0-0-0--0-0-0--0-0-|--0--0-0-0--0-0-0--0-0-1--1-1-|
------------------------------|------------------------------|


                                                        
------------------------------|------------------------|
------------------------------|------------------------|
------------------------------|------------------------|
------------------------------|--3----2--0--2----0-----|
--0--0-0-0--0-0-0--0-0-0--0-0-|---------------------4--|
------------------------------|------------------------|


                                                              
------------------------------|------------------------------|
------------------------------|------------------------------|
------------------------------|------------------------------|
------------------------------|------------------------------|
--0--0-0-0--0-0-0--0-0-0--0-0-|--0--0-0-0--0-0-0--0-0-1--1-1-|
------------------------------|------------------------------|


                                                                             
------------------------------|------------------------|--------------------|
------------------------------|------------------------|--------------------|
------------------------------|------------------------|--------------------|
------------------------------|--3----2--0--2----0-----|--------------------|
--0--0-0-0--0-0-0--0-0-0--0-0-|---------------------4--|--4-----------------|
------------------------------|------------------------|--2------------0----|


                                                                  
--------------------|-------------------|------------------------|
--------------------|-------------------|------------------------|
--------------------|-------------------|------------------------|
--------------------|-------------------|--6----4--3--4----3-----|
--4------------2----|--1----------------|--4----2--1--2----1--5--|
--2-----------------|--2----------------|---------------------3--|


                                                              
--------------------|--------------------|-------------------|
--------------------|--------------------|-------------------|
--------------------|--------------------|-------------------|
--------------------|--------------------|-------------------|
--4-----------------|--4------------2----|--1----------------|
--2------------0----|--2-----------------|--2----------------|


                                                       
------------------------|-----------------------------|
------------------------|-----------------------------|
------------------------|-----------------------------|
--6----4--3--4----3-----|-----------------------------|
--4----2--1--2----1--5--|--0--0-0-0--0-0-0--0-0-1--0--|
---------------------3--|-----------------------------|


                                                          
----------------------------|----------------------------|
----------------------------|----------------------------|
----------------------------|----------------------------|
----------------------0--2--|----------------------------|
----0-0-0--0-0-0--0-0-------|----0-0-0--0-0-0--0-0----0--|
----------------------------|----------------------3-----|


                                                       
------------------------|-----------------------------|
------------------------|-----------------------------|
------------------------|-----------------------------|
--3----2--0--2----0-----|-----------------------------|
---------------------4--|--0--0-0-0--0-0-0--0-0-1--0--|
------------------------|-----------------------------|


                                                          
----------------------------|----------------------------|
----------------------------|----------------------------|
----------------------------|----------------------------|
----------------------0--2--|----------------------------|
----0-0-0--0-0-0--0-0-------|----0-0-0--0-0-0--0-0----0--|
----------------------------|----------------------3-----|


                                                        
------------------------|------------------------------|
------------------------|------------------------------|
------------------------|------------------------------|
--3----2--0--2----0-----|------------------------------|
---------------------4--|--0--0-0-0--0-0-0--0-0-0--0-0-|
------------------------|------------------------------|


                                                              
------------------------------|------------------------------|
------------------------------|------------------------------|
------------------------------|------------------------------|
------------------------------|------------------------------|
--0--0-0-0--0-0-0--0-0-1--1-1-|--0--0-0-0--0-0-0--0-0-0--0-0-|
------------------------------|------------------------------|


                                                        
------------------------|------------------------------|
------------------------|------------------------------|
------------------------|------------------------------|
--3----2--0--2----0-----|------------------------------|
---------------------4--|--0--0-0-0--0-0-0--0-0-0--0-0-|
------------------------|------------------------------|


                                                              
------------------------------|------------------------------|
------------------------------|------------------------------|
------------------------------|------------------------------|
------------------------------|------------------------------|
--0--0-0-0--0-0-0--0-0-1--1-1-|--0--0-0-0--0-0-0--0-0-0--0-0-|
------------------------------|------------------------------|


                                                                   
------------------------|--------------------|--------------------|
------------------------|--------------------|--------------------|
------------------------|--------------------|--------------------|
--3----2--0--2----0-----|--------------------|--------------------|
---------------------4--|--4-----------------|--4------------2----|
------------------------|--2------------0----|--2-----------------|


                                                                  
-------------------|------------------------|--------------------|
-------------------|------------------------|--------------------|
-------------------|------------------------|--------------------|
-------------------|--6----4--3--4----3-----|--------------------|
--1----------------|--4----2--1--2----1--5--|--4-----------------|
--2----------------|---------------------3--|--2------------0----|


                                                                  
--------------------|-------------------|------------------------|
--------------------|-------------------|------------------------|
--------------------|-------------------|------------------------|
--------------------|-------------------|--6----4--3--4----3-----|
--4------------2----|--1----------------|--4----2--1--2----1--5--|
--2-----------------|--2----------------|---------------------3--|


                                                      
--------------------------|--------------------------|
--------------------------|--------------------------|
--------------------------|--------------------------|
---------2----------------|--------------------------|
--0--0-0-0----0--0--0--0--|---------2----------------|
--------------------------|--0--0-0-0----0--0--0--0--|


                                                      
--------------------------|--------------------------|
--------------------------|--------------------------|
--------------------------|--------------------------|
--------------------------|--------------------------|
---------3----------------|---------3-----------2----|
--1--1-1-1----1--1--1--1--|--5--5-5-5----0--0-0-0----|


                                                      
--------------------------|--------------------------|
--------------------------|--------------------------|
--------------------------|--------------------------|
---------2----------------|--------------------------|
--0--0-0-0----0--0--0--0--|---------2----------------|
--------------------------|--0--0-0-0----0--0--0--0--|


                                                      
--------------------------|--------------------------|
--------------------------|--------------------------|
--------------------------|--------------------------|
--------------------------|--------------------------|
---------3----------------|---------3-----------2----|
--1--1-1-1----1--1--1--1--|--5--5-5-5----0--0-0-0----|


                                                      
--------------------------|--------------------------|
--------------------------|--------------------------|
--------------------------|--------------------------|
---------2----------------|--------------------------|
--0--0-0-0----0--0--0--0--|---------2----------------|
--------------------------|--0--0-0-0----0--0--0--0--|


                                                      
--------------------------|--------------------------|
--------------------------|--------------------------|
--------------------------|--------------------------|
--------------------------|--------------------------|
---------3----------------|---------3-----------2----|
--1--1-1-1----1--1--1--1--|--5--5-5-5----0--0-0-0----|


                                                      
--------------------------|--------------------------|
--------------------------|--------------------------|
--------------------------|--------------------------|
---------2----------------|--------------------------|
--0--0-0-0----0--0--0--0--|---------2----------------|
--------------------------|--0--0-0-0----0--0--0--0--|


                                                      
--------------------------|--------------------------|
--------------------------|--------------------------|
--------------------------|--------------------------|
--------------------------|--------------------------|
---------3----------------|---------3-----------2----|
--1--1-1-1----1--1--1--1--|--5--5-5-5----0--0-0-0----|


                                             
--------------------------------------------|
----------------13--------------------------|
--14----13--14------14--13------13----------|
----------------------------15------15--14--|
--------------------------------------------|
--------------------------------------------|


                                                 
------------------------------------------------|
------------------------------------------------|
------------------------------------------------|
--15--14--12--14--12--11------11--12--11--14~---|
--------------------------12--------------------|
------------------------------------------------|


                                                                         
------------------------------------------|-----------------------------|
------------------------------------------|-----------------------------|
------------------14----------------------|-----------------------------|
----12--12--12b------14-12-11-12-11-------|-----------------------------|
------------------------------------13-12-|-----------------------------|
------------------------------------------|--13~---12~-10~-12~---10~-9~-|


                                                                      
---------------------------------|-----------------------------------|
--------------------------8-6-5--|-----------------------------------|
---------------------------------|----7--7--7--6-----6--------7-6----|
---------------------------------|----------------7-----8--7------7--|
--7--10-10-10--8-8-8--7-7--------|-----------------------------------|
---------------------------------|-----------------------------------|


                                                                         
----------------------------------|-----------------------7-8-7-8-10-12-|
----------------------------------|------------------9-10---------------|
----------------------------------|--10-9-7-------9---------------------|
--8h7h5---8h7h5---8h7h5---8h7h5---|---------10-9------------------------|
--------7-------7-------7-------7-|-------------------------------------|
----------------------------------|-------------------------------------|


                                                              
------------------------------|------------------------------|
------------------------------|------------------------------|
------------------------------|------------------------------|
------------------------------|------------------------------|
--0--0-0-0--0-0-0--0-0-0--0-0-|--0--0-0-0--0-0-0--0-0-1--1-1-|
------------------------------|------------------------------|


                                                        
------------------------------|------------------------|
------------------------------|------------------------|
------------------------------|------------------------|
------------------------------|--3----2--0--2----0-----|
--0--0-0-0--0-0-0--0-0-0--0-0-|---------------------4--|
------------------------------|------------------------|


                                                              
------------------------------|------------------------------|
------------------------------|------------------------------|
------------------------------|------------------------------|
------------------------------|------------------------------|
--0--0-0-0--0-0-0--0-0-0--0-0-|--0--0-0-0--0-0-0--0-0-1--1-1-|
------------------------------|------------------------------|


                                                                             
------------------------------|------------------------|--------------------|
------------------------------|------------------------|--------------------|
------------------------------|------------------------|--------------------|
------------------------------|--3----2--0--2----0-----|--------------------|
--0--0-0-0--0-0-0--0-0-0--0-0-|---------------------4--|--4-----------------|
------------------------------|------------------------|--2------------0----|


                                                                  
--------------------|-------------------|------------------------|
--------------------|-------------------|------------------------|
--------------------|-------------------|------------------------|
--------------------|-------------------|--6----4--3--4----3-----|
--4------------2----|--1----------------|--4----2--1--2----1--5--|
--2-----------------|--2----------------|---------------------3--|


                                                              
--------------------|--------------------|-------------------|
--------------------|--------------------|-------------------|
--------------------|--------------------|-------------------|
--------------------|--------------------|-------------------|
--4-----------------|--4------------2----|--1----------------|
--2------------0----|--2-----------------|--2----------------|


                                                                               
------------------------|--------------------------|--------------------------|
------------------------|--------------------------|--------------------------|
------------------------|--------------------------|--------------------------|
--6----4--3--4----3-----|---------2----------------|--------------------------|
--4----2--1--2----1--5--|--0--0-0-0----0--0--0--0--|---------2----------------|
---------------------3--|--------------------------|--0--0-0-0----0--0--0--0--|


                                                      
--------------------------|--------------------------|
--------------------------|--------------------------|
--------------------------|--------------------------|
--------------------------|--------------------------|
---------3----------------|---------3-----------2----|
--1--1-1-1----1--1--1--1--|--5--5-5-5----0--0-0-0----|


                                                      
--------------------------|--------------------------|
--------------------------|--------------------------|
--------------------------|--------------------------|
---------2----------------|--------------------------|
--0--0-0-0----0--0--0--0--|---------2----------------|
--------------------------|--0--0-0-0----0--0--0--0--|


                                                                          
--------------------------|--------------------------|-------------------|
--------------------------|--------------------------|-------------------|
--------------------------|--------------------------|-------------------|
--------------------------|--------------------------|-------------------|
---------3----------------|---------3-----------2----|--7----------------|
--1--1-1-1----1--1--1--1--|--5--5-5-5----0--0-0-0----|--5----------------|


                                                                             
----------|----------|----------|----------|----------|----------|----------|
----------|----------|----------|----------|----------|----------|----------|
----------|----------|----------|----------|----------|----------|----------|
----------|----------|----------|----------|----------|----------|----------|
----------|----------|----------|----------|----------|----------|----------|
----------|----------|----------|----------|----------|----------|----------|


                                                      
--------------------------|--------------------------|
--------------------------|--------------------------|
--------------------------|--------------------------|
---------2----------------|--------------------------|
--0--0-0-0----0--0--0--0--|---------2----------------|
--------------------------|--0--0-0-0----0--0--0--0--|


                                                      
--------------------------|--------------------------|
--------------------------|--------------------------|
--------------------------|--------------------------|
--------------------------|--------------------------|
---------3----------------|---------3-----------2----|
--1--1-1-1----1--1--1--1--|--5--5-5-5----0--0-0-0----|


                                                      
--------------------------|--------------------------|
--------------------------|--------------------------|
--------------------------|--------------------------|
---------2----------------|--------------------------|
--0--0-0-0----0--0--0--0--|---------2----------------|
--------------------------|--0--0-0-0----0--0--0--0--|


                                                      
--------------------------|--------------------------|
--------------------------|--------------------------|
--------------------------|--------------------------|
--------------------------|--------------------------|
---------3----------------|---------3-----------2----|
--1--1-1-1----1--1--1--1--|--5--5-5-5----0--0-0-0----|


                                                            
-----------------------------|-----------------------------|
--10~-----12--13--12--10--9--|--10~-----12--13--12--10--9--|
-----------------------------|-----------------------------|
-----------------------------|-----------------------------|
-----------------------------|-----------------------------|
-----------------------------|-----------------------------|


                                                          
-----------------------------|---------------------------|
--10~-----12--13--12--10--9~-|--------5--9--10--12-10-9--|
-----------------------------|---------------------------|
-----------------------------|---------------------------|
-----------------------------|---------------------------|
-----------------------------|---------------------------|


                                                            
-----------------------------|-----------------------------|
--10~-----12--13--12--10--9--|--10~-----12--13--12--10--9--|
-----------------------------|-----------------------------|
-----------------------------|-----------------------------|
-----------------------------|-----------------------------|
-----------------------------|-----------------------------|


                                                          
-----------------------------|---------------------------|
--10~-----12--13--12--10--9~-|--------5--9--10--12-10-9--|
-----------------------------|---------------------------|
-----------------------------|---------------------------|
-----------------------------|---------------------------|
-----------------------------|---------------------------|


                                                      
--------------------------|--------------------------|
--------------------------|--------------------------|
--------------------------|--------------------------|
--------2--------2-----2--|--------------------------|
--0--0--0--0--0--0--0--0--|--------3--------3-----3--|
--------------------------|--1--1--1--1--1--1--1--1--|


                                                      
--------------------------|--------------------------|
--------------------------|--------------------------|
--------------------------|--------------------------|
--------7--------7-----7--|--9--------9--------9-----|
--5--5--5--5--5--5--5--5--|--7--7--7--7--7--7--7--7--|
--------------------------|--------------------------|


                                                      
--------------------------|--------------------------|
--------------------------|--------------------------|
--------------------------|--------------------------|
--------2--------2-----2--|--------------------------|
--0--0--0--0--0--0--0--0--|--------3--------3-----3--|
--------------------------|--1--1--1--1--1--1--1--1--|


                                                      
--------------------------|--------------------------|
--------------------------|--------------------------|
--------------------------|--------------------------|
--------7--------7-----7--|--9--------9--------9-----|
--5--5--5--5--5--5--5--5--|--7--7--7--7--7--7--7--7--|
--------------------------|--------------------------|


                                                      
--------------------------|--------------------------|
--------------------------|--------------------------|
--------------------------|--------------------------|
--------2--------2-----2--|--------------------------|
--0--0--0--0--0--0--0--0--|--------3--------3-----3--|
--------------------------|--1--1--1--1--1--1--1--1--|


                                                      
--------------------------|--------------------------|
--------------------------|--------------------------|
--------------------------|--------------------------|
--------7--------7-----7--|--9--------9--------9-----|
--5--5--5--5--5--5--5--5--|--7--7--7--7--7--7--7--7--|
--------------------------|--------------------------|


                                                      
--------------------------|--------------------------|
--------------------------|--------------------------|
--------------------------|--------------------------|
--------2--------2-----2--|--------------------------|
--0--0--0--0--0--0--0--0--|--------3--------3-----3--|
--------------------------|--1--1--1--1--1--1--1--1--|


                                                                           
--------------------------|--------------------------|--------------------|
--------------------------|--------------------------|--------------------|
--------------------------|--------------------------|--------------------|
--------7--------7-----7--|--9--------9--------9-----|--5-----------------|
--5--5--5--5--5--5--5--5--|--7--7--7--7--7--7--7--7--|--3--------5--------|
--------------------------|--------------------------|-----------3--------|


                                                                
--------------------|-------------------|----------------------|
--------------------|-------------------|----------------------|
--------------------|-------------------|----------------------|
-----------7--------|--9----------------|----------------------|
--3--------5--------|--7----------------|----------------------|
--1-----------------|--0----------------|--------------0-0-0-0-|


                     
-------------------||
-------------------||
-------------------||
-------------------||
--0----------------||
-------------------||
            
Submit corrections


        Crowning Of Atlantis lessons Hard to play? Try these video lessons and learn fast Crowning Of Atlantis lessons
        
↑ Back to top | Tablatures and chords for acoustic guitar and electric guitar, ukulele, drums are parodies/interpretations of the original songs. You may use it for private study, scholarship, research or language learning purposes only